Cee Lo Green - Fuck You Chords & Tabs

 

Fuck You Chords & Tabs

Cee Lo Green Chords & Tabs

Version: 3 Type: Bass Tab

Fuck You Bass Tab

   
-------------------------------------------------------------------------------
			     Fuck You (Forget You) - Cee Lo Green
-------------------------------------------------------------------------------

Tabbed By : Solerohead
e-mail: solerohead@hotmail.com

Tuning: Standard EADG

Intro/Chorus (in the intro, rest for 12 bar before coming in)
Let the notes ring out
  C             C           Dm            F             C
G|-----------||------------|-------------|-------------|-------------||
D|-----------||------------|-------2--3--|----3--5-----|-------------||
A|-----0--3--||------0--5--|----5--------|----------3--|-------0--3--||
E|--3--------||---3--------|-------------|-------------|-----3-------||

Verse
Stop the notes short

                C           D7            F             C
G|-----------||------------|-------------|-------------|-------------||
D|-----------||------------|-------2--3--|----3--5-----|-------------||
A|-----0--3--||------0--5--|----5--------|----------3--|-------0--3--||
E|--3--------||---3--------|-------------|-------------|-----3-------||

Bridge (A bit trickier - just have a good listen and try different positions that work 
for you)
[ Tab from: http://www.guitartabs.cc/tabs/c/cee_lo_green/fuck_you_btab_ver_3.html ]
   Em                Am                 Dm             G
G|--------9--------|------------------|--------------|-----------------|
D|------9---9------|-------7----------|-----4/5------|----------5------|
A|--7---------7----|-----7---7---7--6-|-5--------5---|----5/-7-----5-6-|
E|---------------x-|-5---------5------|--------------|-3---------------|

G|-------9-------|---------------5----6-|----------7-------9-10-11|------|
D|-----9---9-----|-----7----9-----------|-----7/-9---9(\7)--------|------|
A|--7--------7---|------------x3----x4--|-5-----------------------|------|
E|-------------x-|--x5----x7------------|-----------------------x-|-3----|

G|-----------|-----------|------------------------------|--------------|
D|-----------|-----------|---------------------10p9-----|--------------|
A|-5\--------|-8\--------|-10\----10-12-10-12--------10-|--0--2--3--4--|
E|-----------|-----------|------------------------------|--------------|

G|-----------|-----------|-----------------|-------------------|
D|-----------|-----------|-----------------|-------------------|
A|-5---------|-----------|-----------------|-------------------|
E|-----------|-1------15\|-3-3-3-3-3-3-3-3/|-15----3-/-15------|

A note in brackets means you don't really have to play it, it is there but if you are 
having trouble with the lick, learn it without that note first then try adding it in.
| /  slide up
| \  slide down
| h  hammer-on
| p  pull-off
| ~  vibrato
| +  harmonic
| x  Mute note
============================================================================