Cazals - What Of Our Future Chords & Tabs

 

What Of Our Future Chords & Tabs

Cazals Chords & Tabs

Version: 1 Type: Bass Tab

What Of Our Future Bass Tab

Intro part 1
G|--------------------------------------------------------------------------|
D|--------------------------------------------------------------------------|
A|--5-5-5-5-5-5-5-5---------------------------------------------------------|
E|------------------3/------------------------------------------------------|
Part 2 not sure about the A-3-3
G|--------------------------------------------------------------------------|
D|-----3-3-2-2-5-5-----3-3-2-2---------3-3-2-2-5-5-----3-3-2-2-5-5----------|
A|-5-5-------------5-5---------3-3-5-5-------------5-5----------------------|
E|--------------------------------------------------------------------------|
Part 3
G|--------------------------------------------------------------------------|
D|--------------------------------------------------------------------------|
A|---5-5-5-5-5-5-5-5-5-5-5-5-5-5-5------------------------------------------|
E|--------------------------------------------------------------------------|
Verse*4
G|--------------------------------------------------------------------------|
D|------------------3-3-3-3-3-3-3-3-----------------------------------------|
A|--5-5-5-5-5-5-5-5-----------------3-3-3-3-3-3-3-3-1-1-1-1-1-1-1-1---------|
E|--------------------------------------------------------------------------|
4th time end with
G|--------------------------------------------------------------------------|
D|--------------------------------------------------------------------------|
A|-1-1-/-13-13-13-13--------------------------------------------------------|
E|--------------------------------------------------------------------------|
[ Tab from: http://www.guitartabs.cc/tabs/c/cazals/what_of_our_future_btab.html ]
Pre chorus
G|--------------------------------------------------------------------------|
D|--------------------------------------------------------------------------|
A|-10*-9-8*-9-10*-12*-------------------------------------------------------|
E|--------------------------------------------------------------------------|
Chorus*2
G|--------------------------------------------------------------------------|
D|-----3-3-2-2-5-5----------------------------------------------------------|
A|-5-5----------------------------------------------------------------------|
E|--------------------------------------------------------------------------|
Pause
Verse 2
G|----------------------------------------------------------------------------|
D|------------------3-3-3-3-3-3-3-3-------------------------------------------|
A|-/5-5-5-5-5-5-5-5-----------------3-3-3-3-3-3-3-3-1-1-1-1-1-1-1-1-----------|
E|----------------------------------------------------------------------------|

G|--------------------------------------------------------------------------|
D|------------------3-3-3-3-3-3-3-3-----------------------------------------|
A|-/5-5-5-5-5-5-5-5-----------------3-3-------------1-1---8-8-7-6-5---------|
E|--------------------------------------------------------------------------|

G|--------------------------------------------------------------------------|
D|------------------3-3-3-3-3-3-3-3-----------------------------------------|
A|-/5-5-5-5-5-5-5-5-----------------3-3-3-3-3-3-3-3-1-1-1-1-1-1-1-1---------|
E|--------------------------------------------------------------------------|

G|----------------------------------------------------------------------------|
D|------------------3-3-3-3-3-3-3-3-------------------------------------------|
A|-/5-5-5-5-5-5-5-5-----------------3-3-3-3-3-3-3-3-1-1-1-/13-13-13-13--------|
E|----------------------------------------------------------------------------|

Pre chorus
G|--------------------------------------------------------------------------|
D|--------------------------------------------------------------------------|
A|-10*-9-8*-9-10*-12*-------------------------------------------------------|
E|--------------------------------------------------------------------------|

Intro part 1
G|--------------------------------------------------------------------------|
D|--------------------------------------------------------------------------|
A|--5-5-5-5-5-5-5-5---------------------------------------------------------|
E|------------------3/------------------------------------------------------|

Repeat chorus
End with
G|-----------------------------------------------------------------------------|
D|------3-3-2-2----------------------------------------------------------------|
A|--5-5---------3-3-3----------------------------------------------------------|
E|-----------------------------------------------------------------------------|