Cave In - Come Into Your Own Chords & Tabs

 

Come Into Your Own Chords & Tabs

Cave In Chords & Tabs

Version: 1 Type: Tab 0 ratings
1 star 2 stars 3 stars 4 stars 5 stars
comments

Come Into Your Own Tab

   
Kenny Fabritius
Band: Cave In
Song: Come Into Your Own GUITAR I
Aldum: The Tides Of Tomorrow
Tunning: E Flat



Note: This is only a Tab for the GUITAR I Part Only.  I will try and post the GUITAR II
Part asap.  Enjoy 





KEY:
/= slide
)))= let ring
;;= pick scratch
x= mute





INTRO/TRANSITION Riff:
Eb-------------------------------]
Ab------------3))))))))))))))))--]
Db--2)))--2-2-2))))))))))))))))--]
Gb--1)))--1-1-0------------2-----]
Bb--0)))--0-0-1------3-1-0-------]
eb--0)))--2-0--3-2-0-------------]





VERSE Riff:  Play Part A 1x, and Part B 2x, then Part A again 1x.
   Part A                                                Part B
Eb-----------------------------------------------------|---------------]
Ab-----------------------------------------------------|---------------]
Db--2)))2--2)))2--2)))2--2)))2--2)))2--2-2-2-2-2-2)))--|--7-9-----7-6--]
Gb--1)))1--0)))0--1)))1--0)))0--1)))1--0-0-0-0-0-0)))--|------5-7------]
Bb--0)))0--1-3-1--0)))0--1-3-1--0)))0--1-3-1-0-1-0)))--|---------------]
eb--0-2-0--0)))0--0-2-0--0)))0--0-2-0--0-0-0-0-0-0)))--|---------------]




[ Tab from: http://www.guitartabs.cc/tabs/c/cave_in/come_into_your_own_tab.html ]
CHORUS Riff: Really Supposes to be played with a delay pedal, but if u don't have one
just follow this, i added the extra notes just incase u dont have one.  The extra notes
fill the sound gaps. The Basic fingering are Am, GM, and DM chords.  I won't tab them
out- if you don't know them look them up you should know them if you're a guitarist.
Eb-----------------------------3-----------------------------]
Ab--2-------2-----2-----2--------2---------------------------]
Db----2------------------------------------------------------]
Gb------1-----1-----1-----1------------0-----2)))------------]
Bb--------0-----0-----0-----0------3-----------3)))----------]
eb-----------------------------------3---3-2-----2)))-3-2-0--]





BRIDGE I Riff:
Eb--0)))--]
Ab--2)))--]
Db--2)))--]
Gb--1)))--]
Bb--0)))--]
eb--0)))--]





BRIDGE II Riff:
Eb--0)))--x-----]
Ab--2)))--3)))--]
Db--2)))--2)))--]
Gb--1)))--0)))--]
Bb--0)))--1)))--]
eb--0)))--0)))--]




BRIDGE III Riff: very gradually and slowly on the up slide.
Eb--x-----4)))5)))----------------------]
Ab--3)))--6)))7)))--2)))3)))--/;;;;;;;--]
Db--2)))------------4)))5)))--/;;;;;;;--]
Gb--0)))--------------------------------]
Bb--1)))--------------------------------]
eb--------------------------------------]





SONG RIFF ORDER

INTRO/TRANSITION Riff          8x
VERSE Riff                     1x
CHORUS Riff                    4x
INTRO/TRANSITION Riff          4x
VERSE Riff                     1x
CHORUS Riff                    4x
INTRO/TRANSITION Riff          4x
BRIDGE I Riff                  4x
BRIDGE II Riff                 8x
BRIDGE III Riff                1x
BRIDGE I   Riff                4x
BRIDGE II Riff                 8x
BRIDGE I Riff                  1x
Comments