Cause - On My Own Chords & Tabs

 

On My Own Chords & Tabs

Cause Chords & Tabs

Version: 3 Type: Tab 0 ratings
1 star 2 stars 3 stars 4 stars 5 stars
comments

On My Own Tab

   
Band: The Cause
Song: "On My Own"
Album: On My Own
Tuning: Standard
Written by: Michael Grimes, James Wadley & Dennis Hammond
Part: Lead Guitar


                     [Intro]
e|-----------------------------------------------|
B|-----------------------------------------------|
G|------------------------------0-0--------------|
D|--0-0-------0-0---0-0--------------------------|  x3
A|------12-12------------12--12------------------|
E|-----------------------------------------------|

                [Intro Cont.]
e|-----------------------------------------------|
B|-----------------------------------------------|  x4
G|-----------------------------------------------|
D|--0-0-------0-0--------------------------------|  
A|------12-12-----12/14--------------------------|
E|-----------------------------------------------|

                 [Intro Cont.]
e|--------------------------------------------------------|
B|--------------------------------------------------------|
G|--------------------------------------------------------|
D|--------------------------------------------------------|  x2
A|12121212121212121212121212121313131313131313131313131313|
E|--------------------------------------------------------|

                    
                   [Bridge 1]
e|-----------------------------------------------|
B|-----------------------------------------------|
G|-----------------------------------------------|
D|-3h---3-3-3-----5---3--------------------------|  x3
A|-3h---3-3-3-----5---3--------------------------|
E|-1h---1-1-1-----3---1--------------------------|

e|-----------------------------------------------|
B|-----------------------------------------------|
G|-----------------------------------------------|
D|-5h---5-5---4--3-------------------------------|  
A|-5h---5-5---4--3-------------------------------|
E|-3h---3-3---2--1-------------------------------|


                     [Chorus]
e|-----------------------------------------------|
B|-----------------------------------------------|
G|-----------------------------------------------|
D|---5h--7-5-3-3-3-------------------------------|  x4
A|---5h--7-5-3-3-3-------------------------------|
E|---3h--5-3-1-1-1-------------------------------|

[ Tab from: http://www.guitartabs.cc/tabs/c/cause/on_my_own_tab_ver_3.html ]
                   [Bridge 2]
e|-----------------------------------------------|
B|-----------------------------------------------|
G|-----------------------------------------------|
D|-3h---3-3-3-----5---3--------------------------|  x3
A|-3h---3-3-3-----5---3--------------------------|
E|-1h---1-1-1-----3---1--------------------------|

e|-----------------------------------------------|
B|-----------------------------------------------|
G|-----------------------------------------------|
D|-5h---5-5---4--3-------------------------------|  
A|-5h---5-5---4--3-------------------------------|
E|-3h---3-3---2--1-------------------------------|


                     [Chorus]
e|-----------------------------------------------|
B|-----------------------------------------------|
G|-----------------------------------------------|
D|---5h--7-5-3-3-3-------------------------------|  x4
A|---5h--7-5-3-3-3-------------------------------|
E|---3h--5-3-1-1-1-------------------------------|


                    [Bridge 3]
e|-----------------------------------------------|
B|-----------------------------------------------|
G|-----------------------------------------------|
D|-3h---3-3-3-----5---3--------------------------|  x3
A|-3h---3-3-3-----5---3--------------------------|
E|-1h---1-1-1-----3---1--------------------------|

e|-----------------------------------------------|
B|-----------------------------------------------|
G|-----------------------------------------------|
D|-5h---5-5---4--3-------------------------------|  
A|-5h---5-5---4--3-------------------------------|
E|-3h---3-3---2--1-------------------------------|



                   [Solo]
e|--------------------------------------------|
B|-------------------9------------------------|
G|-0-4-6-4-0-9-7-5-9---9----------------------|
D|-----------------------9--------------------|
A|--------------------------------------------|
E|--------------------------------------------|

                  [Solo cont.]
e|----------------------------------------------------|
B|---------------12-13-11-9-7-5-----------------------|
G|---------9-7-9----------------7-9-8-7-6-5-0-4-6-4-0-|
D|-13-12-9--------------------------------------------| 
A|----------------------------------------------------|
E|----------------------------------------------------|

                  [Chorus]
e|-----------------------------------------------|
B|-----------------------------------------------|
G|-----------------------------------------------|
D|---5h--7-5-3-3-3-------------------------------|  x8
A|---5h--7-5-3-3-3-------------------------------|
E|---3h--5-3-1-1-1-------------------------------|
Comments