Cause - On My Own Chords & Tabs

 

On My Own Chords & Tabs

Cause Chords & Tabs

Version: 2 Type: Tab 0 ratings
1 star 2 stars 3 stars 4 stars 5 stars
comments

On My Own Tab

Band: The Cause
Song: "On My Own"
Album: On My Own
Tuning: Standard
Written by: Michael Grimes, James Wadley & Dennis Hammond
Part: Lead Guitar


                     [Intro]
e|-----------------------------------------------|
B|-----------------------------------------------|
G|------------------------------0-0--------------|
D|--0-0-------0-0---0-0--------------------------|  x3
A|------12-12------------12--12------------------|
E|-----------------------------------------------|


                      [Bridge 1]
e|-----------------------------------------------|
B|-----------------------------------------------|
G|-----------------------------------------------|
D|-----------------------------------------------|  x3
A|-3h---3-3-3-----5---3--------------------------|
E|-1h---1-1-1-----3---1--------------------------|

e|-----------------------------------------------|
B|-----------------------------------------------|
G|-----------------------------------------------|
D|-----------------------------------------------|  
A|-5h---5-5---4--3-------------------------------|
E|-3h---3-3---2--1-------------------------------|


                     [Chorus]
e|-----------------------------------------------|
B|-----------------------------------------------|
G|-----------------------------------------------|
D|---5h--7-5-3-3-3-------------------------------|  x4
A|---5h--7-5-3-3-3-------------------------------|
E|---3h--5-3-1-1-1-------------------------------|


                   [Bridge 2]
e|-----------------------------------------------|
B|-----------------------------------------------|
G|-----------------------------------------------|
D|-----------------------------------------------|  x3
A|-3h---3-3-3-----5---3--------------------------|
E|-1h---1-1-1-----3---1--------------------------|

e|-----------------------------------------------|
B|-----------------------------------------------|
G|-----------------------------------------------|
D|-----------------------------------------------|  
A|-5h---5-5---4--3-------------------------------|
E|-3h---3-3---2--1-------------------------------|

[ Tab from: http://www.guitartabs.cc/tabs/c/cause/on_my_own_tab_ver_2.html ]
                     [Chorus]
e|-----------------------------------------------|
B|-----------------------------------------------|
G|-----------------------------------------------|
D|---5h--7-5-3-3-3-------------------------------|  x4
A|---5h--7-5-3-3-3-------------------------------|
E|---3h--5-3-1-1-1-------------------------------|


                    [Bridge 3]
e|-----------------------------------------------|
B|-----------------------------------------------|
G|-----------------------------------------------|
D|-----------------------------------------------|  x3
A|-3h---3-3-3-----5---3--------------------------|
E|-1h---1-1-1-----3---1--------------------------|

e|-----------------------------------------------|
B|-----------------------------------------------|
G|-----------------------------------------------|
D|-----------------------------------------------|  
A|-5h---5-5---4--3-------------------------------|
E|-3h---3-3---2--1-------------------------------|



                   [Solo]
e|--------------------------------------------------------------------------|
B|-----------------------------------------------------------12-13-11-9-7-5-|
G|-0-4-6-4-0-9-7-5-9-11-9-11-9-9-11-13-11-13-11-11--11-12-11----------------|
D|--------------------------------------------------------------------------|
A|--------------------------------------------------------------------------|
E|--------------------------------------------------------------------------|

                  [Solo cont.]
e|-----------------------------------------------|
B|-----------------------------------------------|
G|-7-9-8-7-6-5-0-4-6-4-0-------------------------|
D|-----------------------------------------------| 
A|-----------------------------------------------|
E|-----------------------------------------------|

                  [Chorus]
e|-----------------------------------------------|
B|-----------------------------------------------|
G|-----------------------------------------------|
D|---5h--7-5-3-3-3-------------------------------|  x8
A|---5h--7-5-3-3-3-------------------------------|
E|---3h--5-3-1-1-1-------------------------------|
Comments