Cause - On My Own Chords & Tabs

 

On My Own Chords & Tabs

Cause Chords & Tabs

Version: 1 Type: Tab 0 ratings
1 star 2 stars 3 stars 4 stars 5 stars
comments

On My Own Tab

Band: The Cause
Song: "On My Own"
Album: On My Own
Tuning: Standard
Written by: Michael Grimes, James Wadley & Dennis Hammond
Part: Intro

h=hammer on
[ Tab from: http://www.guitartabs.cc/tabs/c/cause/on_my_own_tab.html ]
[--------------------------------------------------]INTRO
[--------------------------------------------------]
[-------------------------------------------00-----]  x 3
[---0-0-----------0-0--------00--------------------]
[---------12-12---------------------12-12----------] [Guitar 1]
[--------------------------------------------------]

[-----------------------------------------------]
[-----------------------------------------------]
[-----------------------------------------------]  x 3
[---0-0-------------0-0---0-0----------00-------]
[---------12-12-----------------12h13-----------]  [Guitar 1]
[-----------------------------------------------]

Enjoy
Comments