Cause - On My Own Chords & Tabs

 

On My Own Chords & Tabs

Cause Chords & Tabs

Version: 1 Type: Bass Tab 0 ratings
1 star 2 stars 3 stars 4 stars 5 stars
comments

On My Own Bass Tab

Artist: The Cause
Song: "On My Own"
Album: On My Own

Bridge 1
[-------------------------------]    x 3
[-------------------------------]
[-------------------------------]
[----3h--3-3-3--4-------3-------]

[-------------------------------]
[-------------------------------]
[-------------------------------]
[---3----4-----5----4---3-------]

Chorus
[-------------------------------]
[-------------------------------]
[-------------------------------]     x  4
[--3--5---3---0---1---1---------]

Bride 2
[-------------------------------]    x 3
[-------------------------------]
[-------------------------------]
[----3h--3-3-3--4-------3-------]
[ Tab from: http://www.guitartabs.cc/tabs/c/cause/on_my_own_btab.html ]
[-------------------------------]
[-------------------------------]
[-------------------------------]
[---3----4-----5----4---3-------]

Chorus
[-------------------------------]
[-------------------------------]    x 4
[-------------------------------]
[--3--5---3---0---1---1---------]


Bridge 3

[-------------------------------]    x 3
[-------------------------------]
[-------------------------------]
[----3h--3-3-3--4-------3-------]

[-------------------------------]
[-------------------------------]
[-------------------------------]
[---3----4-----5----4---3-------]

Guitar Solo

Chorus
[-------------------------------]
[-------------------------------]    x 8
[-------------------------------]
[--3--5---3---0---1---1---------]
Comments