Cause - Lies Chords & Tabs

 

Lies Chords & Tabs

Cause Chords & Tabs

Version: 1 Type: Tab 0 ratings
1 star 2 stars 3 stars 4 stars 5 stars
comments

Lies Tab

BAND-The Cause
SONG-"Lies"
ALBUM-On My Own
WRITTEN BY-James Wadley
TUNNING-Standard

PALM MUTE-:
RING-*
PICK TAP-X


[GUITAR 1]
[---------------------------------] INTRO [4X]
[---------------------------------]
[---------------------------------]
[---------------------------------]
[---3---3---3---3---5---5---5---5-] 
[-1---1---1---1---3---3---3---3---]

[GUITAR 1]
[------------------------------------] CHORUS 1 [2X]
[------------------------------------]
[------------------------------------]
[-33-33-33-33-3333--55-55-55-55-5555-]
[-33-33-33-33-3333--55-55-55-55-5555-]
[-11X11X11X11X1111--33X33X33X33X3333-]

[GUITAR 1]
[------------------------------------] CHORUS 2 [3X]
[------------------------------------]
[------------------------------------]
[-33-33-33-33-3333--55-55-55-55-5555-]
[-33-33-33-33-3333--55-55-55-55-5555-]
[-11X11X11X11X1111--33X33X33X33X3333-]
[
[GUITAR 2]
[------------------------------------]
[-7777777777777777--9999999999999999-]
[-7777777777777777--9999999999999999-]
[-5555555555555555--7777777777777777-]
[------------------------------------]
[------------------------------------]

[GUITAR 1]
[------------------------------------] VERSE 1
[------------------------------------]
[-------5**----5**----5**----5**-----]
[----5**----5**----5**----5**--------]
[------------------------------------]
[------------------------------------]

[GUITAR 1]
[------------------------------------] CHORUS 1 [2X]
[------------------------------------]
[------------------------------------]
[-33-33-33-33-3333--55-55-55-55-5555-]
[-33-33-33-33-3333--55-55-55-55-5555-]
[-11X11X11X11X1111--33X33X33X33X3333-]
[ Tab from: http://www.guitartabs.cc/tabs/c/cause/lies_tab.html ]
[GUITAR 1]
[------------------------------------] CHORUS 2 [3X]
[------------------------------------]
[------------------------------------]
[-33-33-33-33-3333--55-55-55-55-5555-]
[-33-33-33-33-3333--55-55-55-55-5555-]
[-11X11X11X11X1111--33X33X33X33X3333-]
[
[GUITAR 2]
[------------------------------------]
[-7777777777777777--9999999999999999-]
[-7777777777777777--9999999999999999-]
[-5555555555555555--7777777777777777-]
[------------------------------------]
[------------------------------------]

[GUITAR 1]
[------------------------------------] VERSE 2
[------------------------------------]
[-------5**----5**----5**----5**-----]
[----5**----5**----5**----5**--------]
[------------------------------------]
[------------------------------------]

[GUITAR 1]
[------------------------------------] CHORUS 1 [2X]
[------------------------------------]
[------------------------------------]
[-33-33-33-33-3333--55-55-55-55-5555-]
[-33-33-33-33-3333--55-55-55-55-5555-]
[-11X11X11X11X1111--33X33X33X33X3333-]

[GUITAR 1]
[------------------------------------] CHORUS 2 [3X]
[------------------------------------]
[------------------------------------]
[-33-33-33-33-3333--55-55-55-55-5555*]
[-33-33-33-33-3333--55-55-55-55-5555*]
[-11X11X11X11X1111--33X33X33X33X3333*]
[
[GUITAR 2]
[------------------------------------]
[-7777777777777777--9999999999999999*]
[-7777777777777777--9999999999999999*]
[-5555555555555555--7777777777777777*]
[------------------------------------]
[------------------------------------]

[GUITAR 1]
[------------------------------------] INTERLUDE [2X]
[------------------------------------]
[------------------------------------]
[------------------------------------]
[-----33-33-33---55-55-55------------]
[-----11-11-11---33-33-33------------]
      :: :: ::   :: :: ::
[GUITAR 1]
[------------------------------------] CHORUS 1 [2X]
[------------------------------------]
[------------------------------------]
[-33-33-33-33-3333--55-55-55-55-5555-]
[-33-33-33-33-3333--55-55-55-55-5555-]
[-11X11X11X11X1111--33X33X33X33X3333-]

[GUITAR 1]
[------------------------------------] CHORUS 2 [5]
[------------------------------------]
[------------------------------------]
[-33-33-33-33-3333--55-55-55-55-5555*]
[-33-33-33-33-3333--55-55-55-55-5555*]
[-11X11X11X11X1111--33X33X33X33X3333*]
[
[GUITAR 2]
[------------------------------------]
[-7777777777777777--9999999999999999*]
[-7777777777777777--9999999999999999*]
[-5555555555555555--7777777777777777*]
[------------------------------------]
[------------------------------------]
Comments