Cause - Here To Stay Chords & Tabs

 

Here To Stay Chords & Tabs

Cause Chords & Tabs

Version: 1 Type: Tab 0 ratings
1 star 2 stars 3 stars 4 stars 5 stars
comments

Here To Stay Tab

Band:The Cause
Song:"Here To Stay"
Album:On My Own
Tuning:Standard
Written By:James Wadley

        INTRO 
|------------------------------|------------------------------|
|------------------------------|------------------------------|
|-----0---0----------0---0-----|-----0---0----------0---0-----|
|---5---5---5------4---4---4---|---5---5---5------4---4---4---|
|-3-----------3--2-----------2-|-3-----------3--2-----------2-|
|------------------------------|------------------------------|
|                              |                              | 
|------------------------------|------------------------------|
|------------------------------|------------------------------|
|-----0---0----------0---0-----|-----0---0----------0---0-----|
|---5---5---5------4---4---4---|---5---5---5------4---4---4---|
|-3-----------3--2-----------2-|-3-----------3--2-----------2-|
|------------------------------|------------------------------|
|                              |                              | 
|------------------------------|------------------------------|
|------------------------------|------------------------------|
|-----0---0----------0---0-----|-----0---0----------0---0-----|
|---5---5---5------4---4---4---|---5---5---5------4---4---4---|
|-3-----------3--2-----------2-|-3-----------3--2-----------2-|
|------------------------------|------------------------------|
|                              |                              | 
|------------------------------|------------------------------|
|------------------------------|------------------------------|
|-----0---0----------0---0-----|-----0---0----------0---0-----|
|---5---5---5------4---4---4---|---5---5---5------4---4---4---|
|-3-----------3--2-----------2-|-3-----------3--2-----------2-|
|------------------------------|------------------------------|
|                              |                              | 
|------------------------------|------------------------------|
|------------------------------|------------------------------|
|-----0---0----------0---0-----|-----0---0----------0---0-----|
|---5---5---5------4---4---4---|---5---5---5------7---7---7---|
|-3-----------3--2-----------2-|-3-----------3--5-----------5-|
|------------------------------|------------------------------|
|                              |                              |    
|------------------------------|------------------------------|
|------------------------------|------------------------------|
|-----0---0----------0---0-----|-----0---0----------0---0-----|
|---5---5---5------4---4---4---|---5---5---5------7---7---7---|
|-3-----------3--2-----------2-|-3-----------3--5-----------5-|
|------------------------------|------------------------------|

     PRE-CHORUS
|------------------------------|------------------------------|
|------------------------------|------------------------------|
|-55555555555555-4444444444444-|-55555555555555-4444444444444-|
|-55555555555555-4444444444444-|-55555555555555-4444444444444-|
|-33333333333333-2222222222222-|-33333333333333-2222222222222-|
|------------------------------|------------------------------|
[ Tab from: http://www.guitartabs.cc/tabs/c/cause/here_to_stay_tab.html ]
     VERSE 2X
|------------------------------|------------------------------|          
|------------------------------|------------------------------|
|-------5**4-5-7**-------------|--------5**4-5-7**5-----------|
|-------5**4-5-7**-------------|--------5**4-5-7**5-----------|
|-------3**2-3-5**-------------|--------3**2-3-5**3-----------|
|------------------------------|------------------------------|
       
     PRE-CHORUS
|------------------------------|------------------------------|
|------------------------------|------------------------------|
|-55555555555555-4444444444444-|-55555555555555-4444444444444-|
|-55555555555555-4444444444444-|-55555555555555-4444444444444-|
|-33333333333333-2222222222222-|-33333333333333-2222222222222-|
|------------------------------|------------------------------|

      CHORUS 2X
|------------------------------|------------------------------|
|------------------------------|------------------------------|
|-----5-5-555-7-777-777--------|------4-4-444-5-555-555-------|
|-----5-5-555-7-777-777--------|------4-4-444-5-555-555-------|
|-----3-3-333-5-555-555--------|------2-2-222-3-333-333-------|
|------------------------------|------------------------------|

       VERSE 2X
|------------------------------|------------------------------|          
|------------------------------|------------------------------|
|-------5**4-5-7**-------------|--------5**4-5-7**5-----------|
|-------5**4-5-7**-------------|--------5**4-5-7**5-----------|
|-------3**2-3-5**-------------|--------3**2-3-5**3-----------|
|------------------------------|------------------------------|

       PRE-CHORUS
|------------------------------|------------------------------|
|------------------------------|------------------------------|
|-55555555555555-4444444444444-|-55555555555555-4444444444444-|
|-55555555555555-4444444444444-|-55555555555555-4444444444444-|
|-33333333333333-2222222222222-|-33333333333333-2222222222222-|
|------------------------------|------------------------------|
 
       CHORUS 2X
|------------------------------|------------------------------|
|------------------------------|------------------------------|
|-----5-5-555-7-777-777--------|------4-4-444-5-555-555-------|
|-----5-5-555-7-777-777--------|------4-4-444-5-555-555-------|
|-----3-3-333-5-555-555--------|------2-2-222-3-333-333-------|
|------------------------------|------------------------------|
 
       INTERLUDE
|------------------------------|------------------------------|
|------------------------------|------------------------------|
|---------55-555-77-777--------|----------44-444-55-555-------|
|---------55-555-77-777--------|----------44-444-55-555-------|
|---------33-333-55-555--------|----------22-222-33-333-------|
|---------::-:::-::-:::--------|----------::-:::-::-:::-------|

       PRE-CHORUS
|------------------------------|------------------------------|
|------------------------------|------------------------------|
|-55555555555555-4444444444444-|-55555555555555-4444444444444-|
|-55555555555555-4444444444444-|-55555555555555-4444444444444-|
|-33333333333333-2222222222222-|-33333333333333-2222222222222-|
|------------------------------|------------------------------|
 
       CHORUS 5X
|------------------------------|------------------------------|
|------------------------------|------------------------------|
|-----5-5-555-7-777-777--------|------4-4-444-5-555-555-------|
|-----5-5-555-7-777-777--------|------4-4-444-5-555-555-------|
|-----3-3-333-5-555-555--------|------2-2-222-3-333-333-------|
|------------------------------|------------------------------|

        OUTRO
|------------------------------|------------------------------|
|------------------------------|------------------------------|
|-----0---0----------0---0-----|-----0---0----------0---0-----|
|---5---5---5------4---4---4---|---5---5---5------7---7---7---|
|-3-----------3--2-----------2-|-3-----------3--5-----------5-|
|------------------------------|------------------------------|
Comments