Caught In The Crosshairs - Weapons Chords & Tabs

 

Weapons Chords & Tabs

Caught In The Crosshairs Chords & Tabs

Version: 1 Type: Bass Tab 0 ratings
1 star 2 stars 3 stars 4 stars 5 stars
comments

Weapons Bass Tab

|-------------------|
|-------------------|
|-------------------|
|-0---8-7---3-5-6-3-|
 play this 4 times

|--------------------------------------------------|
|--------------------------------------------------|
|------------------8-7-8-10-8-7-8---8-7-8-10-8-7-8-|
|-0--0-0-0-0-0-0-0----------------7----------------|
 play this 4 times
[ Tab from: http://www.guitartabs.cc/tabs/c/caught_in_the_crosshairs/weapons_btab.html ]
|--------------------------------------------------|
|--------------------------------------------------|
|---------------------12p-10p0-h8-h10p-8/7/8-------|
|-0-0--000-0-000-0-00------------------------------|
play this 4 times

|----------------------------------------------------------------|
|----------------------------------------------------------------|
|----------------------------------------------------------------|
|-0-0-0-0-0-0-0-0-0-0-0-0-0-0-0-0-3-3-3-3-3-3-3-3-3-3-3-3-3-3-3-3|
 play this 2 times
 
 the song loops through that cycle and then the breakdown (its sick)
|--------------------------------------------------|
|--------------------------------------------------|
|--------------------------------------------------|
|-0-1-0-1-4-1-3-1-0-1-0-1-4-1-3--------------------|
Comments