Catupecu Machu - Magia Veneno Chords & Tabs

 

Magia Veneno Chords & Tabs

Catupecu Machu Chords & Tabs

Version: 2 Type: Tab

Magia Veneno Tab

   
Magia Veneno
Escrita por Fernando Ruiz Diaz
Del Album: El Número Imperfecto
Interpretada por Catupecu Machu
Tab de Diego; diego_newsted@hotmail.com

Saque esta cancion porque me gusta mucho y espero que la disfruten

Riff Principal: ( Se repite por todo el tema )
[ Tab from: http://www.guitartabs.cc/tabs/c/catupecu_machu/magia_veneno_tab_ver_2.html ]
e-------------------------------|--------------------|------------|
B-------------------------------|--------------------|------------|
G----------------6-7-9--6-------|------6-7-9--6------|------6-7-9-|
D----9-7-7-7---9----------9-9-9-|----9----------9-9-9|----9-------|
A--7---------7------------------|--7-----------------|--7---------|
E-------------------------------|--------------------|------------|
                                |   Esto lo repite   |
                                |      2 veces.      |

En los versos hace esta secuencia de acordes
( Escuchen bien los versos para saber los cambios )

e-----------------|
B-----------------|
G-----------------|
D--7---6---9---4--|
A--7---6---9---4--|
E--5---4---7---2--|

  A5  G#5  B5  F#5

Fill:
e----------------------------------------|
B----------------------------------------|
G--2---2--------6-6-6-6-6-6-6-6-6-6-6-6--|
D----------------------------------------|
A----------------------------------------|
E----------------------------------------|
Entre lo dicho y lo echooooooooooo.....

La cancion termina en A5

Por lo que ven, es muy facil de tocar.

Cualquier duda o comentario envienmelo a mi msn.

 Aguante METALLICA y Catupecu!!!!!!