Catupecu Machu - Magia Veneno Chords & Tabs

 

Magia Veneno Chords & Tabs

Catupecu Machu Chords & Tabs

Version: 1 Type: Tab 0 ratings
1 star 2 stars 3 stars 4 stars 5 stars
comments

Magia Veneno Tab

artist: Catupecu Machu
song: Magia Veneno
album: El numero imperfecto(2004)
user: Coke_666----------CHILE

intro: 

E|--------------------------------------------------------------------------------|
B|--------------2-3-5-2-0--000--0-2-3-5-2-0--000--0-2-3-5-2-0--000--0--2-3-5-2----|
G|-2-4-2-2-2--2----------------------------------------------------------------2--|
D|--------------------------------------------------------------------------------|
A|--------------------------------------------------------------------------------|
E|--------------------------------------------------------------------------------|

E|------------------------------------------------------------------------------|
B|--------------2-3-5-2-0--000--0-2-3-5-2-0--000--0-2-3-5-2-0--000--0--2-3-5----|
G|-2--2-2-2--2------------------------------------------------------------------|
D|------------------------------------------------------------------------------|
A|------------------------------------------------------------------------------|
E|------------------------------------------------------------------------------|

verse:

 LA                          SOL#
Los Inviernos de una noche, mañanas que fueron
 SI                        FA#
Y ahora dejame sangrar en tus infiernos
 LA                       SOL#
Las semillas de tu encanto van creciendo
  SI                        FA#
Vivo fuertes madrugadas que al otro día siento
 LA                          SOL#
piel de oro, rojo enfermo, el amor ambidiestro.


 SI                    FA#
De la luz hacia lo obscuro,magia veneno
   LA                  SOL#
de obscuro hacia la luz todo nuevo
   SI
respirarse,emborracharse
    FA#
morir y seguir viviendo

E|---------------------------------------------------------------------------|
B|--------------2-3-5-2-0--000--0-2-3-5-2-0--000--0-2-3-5-2-0--000--0--2-3-5-|
G|-2-4-2-2-2--2--------------------------------------------------------------|
D|---------------------------------------------------------------------------|
A|---------------------------------------------------------------------------|
E|---------------------------------------------------------------------------|

Chorus:

LA
veo en partes lo que tu ves
   SOL#
quieras o no estas adentro
    SI
veo en partes no se si ves
    FA#
entre lo dicho y lo hecho

E|---------------------------------------------------------------------------|
B|--------------2-3-5-2-0--000--0-2-3-5-2-0--000--0-2-3-5-2-0--000--0--2-3-5-|
G|-2-4-2-2-2--2--------------------------------------------------------------|
D|---------------------------------------------------------------------------|
A|---------------------------------------------------------------------------|
E|---------------------------------------------------------------------------|
[ Tab from: http://www.guitartabs.cc/tabs/c/catupecu_machu/magia_veneno_tab.html ]
verse 2
LA                     SOL#
los amores,el derroche,los finales abierto
SI                           FA#
lo que habita en otros lados y aun no conocemos
LA                        SOL#
lo que pides,lo que puedo,lo que queda en intentos
SI                        FA#
todo a punto de alterarse,siempre a todo momento
LA                    SOL#
vuelvo otro alter ego,el costado siniestro
SI                         FA#
de la luz hacia lo obscuro magia veneno
   LA                  SOL#
de obscuro hacia la luz todo nuevo
   SI
respirarse,emborracharse
    FA#
morir y seguir viviendo

E|---------------------------------------------------------------------------|
B|--------------2-3-5-2-0--000--0-2-3-5-2-0--000--0-2-3-5-2-0--000--0--2-3-5-|
G|-2-4-2-2-2--2--------------------------------------------------------------|
D|---------------------------------------------------------------------------|
A|---------------------------------------------------------------------------|
E|---------------------------------------------------------------------------|

Chorus:

LA
veo en partes lo que tu ves
   SOL#
quieras o no estas adentro
    SI5
veo en partes no se si ves
    FA#
entre lo dicho y lo hecho

LA
veo en partes lo que tu ves
   SOL#
quieras o no estas adentro
    SI
veo en partes no se si ves
    FA#
entre lo dicho y lo hechoooooooooo.

E|---------------------------------------------------------------------------|
B|--------------2-3-5-2-0--000--0-2-3-5-2-0--000--0-2-3-5-2-0--000--0--2-3-5-|
G|-2-4-2-2-2--2--------------------------------------------------------------|
D|---------------------------------------------------------------------------|
A|---------------------------------------------------------------------------|
E|---------------------------------------------------------------------------|

LA
veo en partes lo que tu ves
   SOL#
quieras o no estas adentro
    SI
veo en partes no se si ves
    FA#
entre lo dicho y lo hecho

LA
veo en partes lo que tu ves
   SOL#
quieras o no estas adentro
    SI
veo en partes no se si ves
    FA#
entre lo dicho y lo hechoooooooooo.

E|--------------------------------------------------|
B|-----------------------22222222222222222222222222-|
G|---22222222222222222222---------------------------|
D|--------------------------------------------------|
A|--------------------------------------------------|
E|--------------------------------------------------|

entre lo dicho y lo hechooooooooooooooooo.

end song

E|------------------------------------------------------------------------------|
B|--------------2-3-5-2-0--000--0-2-3-5-2-0--000--0-2-3-5-2-0--000--0--2-3-5----|
G|-2-4-2-2-2--2-----------------------------------------------------------------|
D|-----------------------------------------------------------------------------5|
A|-----------------------------------------------------------------------------5|
E|-----------------------------------------------------------------------------7|
Comments