Catupecu Machu - Gritarle Al Viento Chords & Tabs

 

Gritarle Al Viento Chords & Tabs

Catupecu Machu Chords & Tabs

Version: 1 Type: Tab 0 ratings
1 star 2 stars 3 stars 4 stars 5 stars
comments

Gritarle Al Viento Tab

-------------------------------------------------------------------------------------------------------
-----------------------------------------------TAB BY HH-----------------------------------------------
-------------------------------------------------------------------------------------------------------

CATUPECU MACHU

*Gritarle al viento


INTRO

E|-------------------|----------------|
B|-------------------|----------------|
G|-------------------|----------------|
D|-------------------|----------------|
A|-0---2---4---X-X---|--0---4---2-----|
E|-------------------|----------------|



VERSO:

E|-------------------------------------------------|
B|-------------------------------------------------|
G|-------------------------------------------------|
D|-----------2-----------------------------4-6-----|
A|-----------0-----------------------------2-4---4-|
E|-----------------------------------------------2-|

Me alejo un poco de vos luego de un rato vuelvo.....


CHORUS:

E|------------------------------------------------------|
B|-15--14--15-15-14-15-15-14--17-15-14---------14-------|
G|--------------------------------------14-16-----------|
D|------------------------------------------------------|
A|------------------------------------------------------|
E|------------------------------------------------------|

Se consuma la voz de gritarle en vano al viento...


E|-----------|
B|-----------|
G|-----------|
D|----7-7----|
A|----7-7----|
E|----5-5----|

[ Tab from: http://www.guitartabs.cc/tabs/c/catupecu_machu/gritarle_al_viento_tab.html ]
E|------------------------------------------------------|
B|-15--14--15-15-14-15-15-14--17-15-14---------14-------|
G|--------------------------------------14-16-----------|
D|------------------------------------------------------|
A|------------------------------------------------------|
E|------------------------------------------------------|
No podemos nadar si tus rios estan secos.......


E|-----------|
B|-----------|
G|-----------|
D|----7-7----|
A|----7-7----|
E|----5-5----|


PUENTE: (p.m.) - se tocan las mismas notas pero mutiladas.



CHORUS:

Me alejo un poco de vos luego de un rato vuelvo.
Cambiaste la voz de, tus ojos miran serios.
Sentis que sos el cursor la brujula y el viento y 
que el mundo es cruel por que ocupa tu tiempo.
Se consuma la voz de gritarle en vano al viento. 
No podemos nadar si tus ríos estan secos.
El desierto es así siemrpe desierto 
no se va a inundar por grande el deseo.
Vivir a costa de quien de que y de que momento 
mi recuerdo es hoy lo busco y lo encuentro.
Se consume la voz...
Despues que el dia caiga el instinto donde nos encaminara 
crepusculo noche y mañana, de nuevo lo imposible, las ansias 
un nuevo libro en una lengua extraña nuevos brazos que se entrelazan!!
Se consume la voz.. 

*******************************      ***************************************

Alguna duda mandame un mail a eljakerhh@hotmail.com (cosa q no creo), este tab va
para el negro, q la pueda cantar como
corresponde y no nos aturde en la sala ;-) , y suad, SOLTA EL MICROFONO!!!!
Comments