Catupecu Machu - Dale Chords & Tabs

 

Dale Chords & Tabs

Catupecu Machu Chords & Tabs

Version: 1 Type: Tab

Dale Tab

Great catupecu song....

I thought it was missing so I thought of submitting it ...



[ Tab from: http://www.guitartabs.cc/tabs/c/catupecu_machu/dale_tab.html ]
E|----------------------------------------------------|
B|----------------------------------------------------|
G|-----------------3--4---7p4-------------------------|
D|----------5-----------------------------------------|
A|-------5------5-------------------------------------|
E|--3-------------------------------------------------|

E|----------------------------------------------------|Repeat this two TWICE
B|----------------------------------------------------|
G|------------------3--5s-7-7-------------------------|
D|----------5-----------------------------------------|
A|-------5------5-------------------------------------|
E|--3-------------------------------------------------|




well

as always , any correction is welcome