Cattle Decapitation - To Serve Man Chords & Tabs

 

To Serve Man Chords & Tabs

Cattle Decapitation Chords & Tabs

Version: 2 Type: Tab 0 ratings
1 star 2 stars 3 stars 4 stars 5 stars
comments

To Serve Man Tab

   
Band: Cattle Decapitation
Album: To Serve Man
Song: To Serve Man

Copyright (c)  Metal Blade Records 2002
Version 2.0 - March 13, 2005

Transcribed By: hate_thy_neighbor
Email:          negative12002@aol.com


.  - palm mute           /  - slide up to
\  - slide down to       ~  - vibrato
h  - hammer on           b  - Bend
p  - pull off            Suffixes for bend
t  - tap                 f  - full bend    h - half bend
ph - pinched harmonic    q  - quarter bend t - tap bend
*  - see comment         ^  - Hold bend    r release bend
x  - Stuccatto           ~  - vibrato bend
,  - slight palm mute    () - ghost note, sustained note
"  - tremolo pick        <> - Trill


Tuning:  Down 1/2 step (Eb Ab Db Gb Bb Eb)

Riff 1
|--------------------------------------|
|--------------------------------------|
|--------------------------------------|
|--------------------------------------|
|--5---------4-5-4-2-------------------|
|--3---------2-3-2-0-------------------|
             . . . 

Riff 2
|--------------------------------------|
|--------------------------------------|
|--------------------------------------|
|--------------------------------------|
|--------------------------------------|
|-33333333333323200000000000000000-----|


Riff 3
|--------------------------------------|
|--------------------------------------|
|--------------------------------------|
|--------------------------------------|
|--------------------------------------|
|-"5-"8-"4-"7-"3-"6-"2-"5--------------|


Riff 4
|--------------------------------------|
|--------------------------------------|
|--------------------------------------|
|--------------------------------------|
|--------------------------------------|
|-"1-"4-"2-"5-"3-"6-"4-"7--------------|


Riff 5
|--------------------------------------|
|--------------------------------------|
|--------------------------------------|
|--------------------------------------|
|-2------------------------------------|
|-0---------------3-2-0-3-2-0-3-2------|
                  . . . . . . . .

[ Tab from: http://www.guitartabs.cc/tabs/c/cattle_decapitation/to_serve_man_tab_ver_2.html ]
Riff 6
|--------------------------------------|
|--------------------------------------|
|--------------------------------------|
|--------------------------------------|
|--------------------------------------|
|-"3----"7--"2----"6--"1---------------|


Riff 7
|--------------------------------------|
|--------------------------------------|
|--------------------------------------|
|--------------------------------------|
|--------------------------------------|
|-"5-"8-"7-"3-"2-"5-"3-"2--------------|


Riff 8
|-------------------------|
|-------------------------|
|-------------------------|
|---------------ph--------|
|-------------------------|
|-002-3-002-3-002---------|


Riff 9
|--------------------------------------|
|--------------------------------------|
|--------------------------------------|
|--------------------------------------|
|-"5-"8-"7-"3-"2-"5-"3-"2--------------|
|--------------------------------------|


Riff 10
|-------------------------|
|-------------------------|
|---------------ph--------|
|-------------------------|
|-002-3-002-3-002---------|
|-------------------------|

First solo (w/ Riff 4)

Riff 11
|--------------------------------------|
|--------------------------------------|
|--------------------------------------|
|--------------------------------------|
|-"5-"8-"4-"7-"3-"6-"2-"5--------------|
|--------------------------------------|


Riff 12 (during 2nd solo)
|-------------------------------------|
|-------------------------------------|
|-------------------------------------|
|-------------------------------------|
|-"1-"4-"2-"5-"3-"6-"4-"7-------------|
|-------------------------------------|


Riff 13
|------------------------------|
|------------------------------|
|------------------------------|
|------------------------------|
|-2----------------------------|
|-0---------23232323-----------|
            ........

Riff 14
|-------------------------------------|
|-------------------------------------|
|-------------------------------------|
|-------------------------------------|
|-2--------5-4-5-4--------------------|
|-0--------3-2-3-2--------------------|
           . . . .


Order:
Riff 1--4x
Riff 2--4x
Riff 1--2x
Riff 3--4x
Riff 4--4x
Riff 5--2x
Riff 6--1x
Riff 5--2x
Riff 6--1x
Riff 7--6x
Riff 8--4x
Riff 9--2x
Riff 10--2x
Riff 7--2x
Riff 9--2x
Riff 7--2x
Riff 8--2x
Riff 3--4x
Riff 4--4x
Riff 11--4x
Riff 12--4x
Riff 13--2x
Riff 6--1x
Riff 13--2x
Riff 6--1x
Riff 14--2x
Riff 6--1x
Riff 1--4x
Comments