Cattle Decapitation - Regurgitation Of Corpses Chords & Tabs

 

Regurgitation Of Corpses Chords & Tabs

Cattle Decapitation Chords & Tabs

Version: 1 Type: Tab 0 ratings
1 star 2 stars 3 stars 4 stars 5 stars
comments

Regurgitation Of Corpses Tab

Cattle Decapitation
The Regurgitation Of Corpses

Tabbed by Jorge
Contact me for questions or comments at
fungus_infested_genitals@yahoo.com or
xlos_crudos4x@yahoo.com

 " = tremelo picked    b = bend

 . = palm mute         p = pull off
 
 * = see comment

Tuning : half step down

riff 1
|--------------------|
|--------------------|
|--------------------|
|--------7b-----7----|x4
|------6----------6b-|
|-5"--------5"-------|

pause
riff 1 x2

riff  2
|-------------------------------|
|-------------------------------|
|-------------------------------|
|-7-----7-----7-----7-7----7----|x3
|-6-----6-----6-----6-6------6b-|
|-5-555-5-555-5-555-5-5-5"------|
    ...   ...   ...    

riff 2a
|-----------------------|
|-----------------------|
|-----------------------|
|-7-----7-----7-----7-7-|x1
|-6-----6-----6-----6-6-|
|-5-555-5-555-5-555-5-5-|
    ...   ...   ...


riff 3                 
|---------------------|           |-----|
|---------------------|           |-----|
|---------------------|x5(i think)|-----|x1
|-7-----7-----7-----7-|           |-----|
|-6-----6-----6-----6-|           |-----|
|-5-555-5-555-5-555-5-|           |-/5\-|
    ...   ...   ...

[ Tab from: http://www.guitartabs.cc/tabs/c/cattle_decapitation/regurgitation_of_corpses_tab.html ]
riff 4                      riff 5
|---------------------|   |------------------------------------------|
|---------------------|   |------------------------------------------|
|---------------------|   |------------------------------------------|
|---------------------|x8 |-----8"---------------------8"------------|x4 
|------6b-------6b----|   |---7"--7"-8"-10"-8"-7"----7"--7"-8"-7"-5"-|
|-5555-----5555----4b-|   |-5----------------------5-----------------|
 *....*   *....*

* = only palm mute last four times


riff 6
|--------------------------------------|
|--------------------------------------|
|--------------------------------------|
|--------------------------------------|x1
|-5----4----5----4----5----4----5----4-|
|-3-22-2-33-3-22-2-33-3-22-2-33-3-22-2-|
    ..   ..   ..   ..   ..   ..   .. 

riff 5 x1
riff 6 x1

riff 7       
|--------------------------|
|--------------------------|
|--------------------------|
|-----7-----8-----7-----6--|x1
|---6-----7-----6-----5----|
|-5-----6-----5-----4------|
  . . . . . . . . . . . .


riff 8
|------------------------------------------------|
|------------------------------------------------|
|------------------------------------------------|
|------------------------------------------------|x1
|------------------------------------------------|
|-3p0"--2p0"--3p0"--2p0"--3p0"--2p0"--3p0"--2p0"-|

riff 7 x1
riff 8 x1
riff 7 x1
riff 8 x1
riff 7 x4


riff 9
|------------|
|------------|
|------------|
|------------|x1 
|-7--8--6--7-|
|-5--6--4--5-|

riff 1 x4


riff 10
|------------|
|------------|
|------------|
|------------|x2 regular picked then x2 tremelo picked
|-7--6--8--7-|
|-5--4--6--5-|
Comments