Cattle Decapitation - I Eat Your Skin Chords & Tabs

 

I Eat Your Skin Chords & Tabs

Cattle Decapitation Chords & Tabs

Version: 1 Type: Tab 0 ratings
1 star 2 stars 3 stars 4 stars 5 stars
comments

I Eat Your Skin Tab

   
Band: Cattle Decapitation
Song: I Eat Your Skin
Album: To Serve Man

CGCFAD

v:vibrato
b:bend

Some notes may be played more than I put down.

Riff 1 x4
-----------------------------|
-----------------------------|
-----------------------------|
-----------------------------|
------00---------------------|
-3333---6666-----------------|


Riff 2

----------------------------|
----------------------------|
----------------------------|
-3-3-3-3-2-2-6--------------|
-3-3-3-3-0-0-6--------------|    Let last chord ring
-3-3-3-3-----6--------------|

Riff 3 (Fast)

-----------------------------|
-----------------------------|
-----------------------------|
-----------------------------|
-----00----------------------|
-3333--6666------------------|

Riff 4

-------------------------------|
-------------------------------|
-------------------------------|
-3333-0-0--3333-444------------|
-3333-0-0-----------6b-6b------|
-3333-0-0----------------------|
[ Tab from: http://www.guitartabs.cc/tabs/c/cattle_decapitation/i_eat_your_skin_tab.html ]
Riff 5 after this go back to riff 3

-----------------------------|
-----------------------------|
-----------------------------|         After the 8, there are some artificial harmonics but I don't
-3-3-3-3-8v------------------|        know what they are.
-3-3-3-3---------------------|
-3-3-3-3---------------------|

Riff 6: This comes after repeating riff three. Before this comes a single note version 
the low C string.

-------------------------------|
-------------------------------|
-------------------------------|
-3-5-6-5-3-5-6-5-3-5-6-5-------|
-3-5-6-5-3-5-6-5-3-5-6-5-------|
-3-5-6-5-3-5-6-5-3-5-6-5-------|

Riff 7
-----------------------------------------------------------|Change last part to this on the second time
-----------------------------------------------------------|
-----------------------------------------------------------|
------ 6--------------5-5-3-3-6-6-5-5     7-7-5-5-8-8-7-7--|
-5555---3-5-3-3-5-6--5-5-3-3-6-6-5-5    7-7-5-5-8-8-7-7----|
----------------------5-5-3-3-6-6-5-5    7-7-5-5-8-8-7-7---|
Comments