Catherine Wheel - I Want To Touch You Chords & Tabs

 

I Want To Touch You Chords & Tabs

Catherine Wheel Chords & Tabs

Version: 1 Type: Tab

I Want To Touch You Tab

   
-------------------------------------------------------------------------------
			     I WANT TO TOUCH YOU - Catherine Wheel
-------------------------------------------------------------------------------
Tabbed by: Vicki
Email: need_my_moonage@hotmail.com

Tuning: Standard (EADGBe)

The intro is as follows:              Then just before the chords kick in:

e|---------------------------------|---------------------------------------|
B|------------------3---3---2b3r0--|------------------3---3---3/5-5-5------|
G|------4-2-4-2/4-4---4---4--------|------4-2-4-2/4-4---4---4--------------|
D|---2-----------------------------|---2-----------------------------------|
A|---------------------------------|---------------------------------------|
E|---------------------------------|---------------------------------------|

And this is the lead over the bit just before the verse (under which E, G and A are played)

e|--12-12-12-12-10-10-10-10-10-7-7-7-7-5-5-5-5-4-4-4-4-4-4-4-4-3-3-3-3-5-5-|
B|-------------------------------------------------------------------------|
G|-------------------------------------------------------------------------|
D|-------------------------------------------------------------------------|
A|-------------------------------------------------------------------------|
E|-------------------------------------------------------------------------|

e|-5-5-4-4-4-4-4-4-4-3-3-3-3-5-5-7-8-7-8-7---------------------------------|
B|-------------------------------------------------------------------------|
G|-------------------------------------------------------------------------|
D|-------------------------------------------------------------------------|
A|-------------------------------------------------------------------------|
E|-------------------------------------------------------------------------|

(In case you don't know the chord shapes, these are the chords for the verse)
   
   E        G         A
[ Tab from: http://www.guitartabs.cc/tabs/c/catherine_wheel/i_want_to_touch_you_tab.html ]
e|-0--------3----------0---------------------------------------------------|
B|-0--------3----------2---------------------------------------------------|
G|-1--------0----------2---------------------------------------------------|
D|-2--------0----------2---------------------------------------------------|
A|-2--------2----------0---------------------------------------------------|
E|-0--------3--------------------------------------------------------------|

(The intro is played underneath this)

E                    G       A              E G A
I always thought the way you talked was neat
E                           G         A          E G A        
And I dreamed that when you speak you speak to me
           E             G    A   
But you're always out of reach
      E                 G    A    
And I can't control my speech
        E                   G 
And I'm scared that when we meet
     A                E G 
I'll want to touch you
   D
I want to touch you

The intro goes on under the chorus (which is the same as the end of the verse,
in the pattern 'E, G, D'), but in this variation:
                             ------->(for that bit you could bend on the 
                             |        2nd fret but its easier this way)  
e|------------------------2-3-2-0------------------------------------------|
B|-----------------3---3---------------------------------------------------|
G|-----4-2-4-2/4-4---4---3-------------------------------------------------|
D|--2----------------------------------------------------------------------|
A|-------------------------------------------------------------------------|
E|-------------------------------------------------------------------------|

(Solo in E minor i THINK, but i was unable to tab it out)

The verse and chorus are the same, but the bridge uses the chord pattern:

A minor, C, F

Then there's another solo in E minor (I THINK, but I'm still not completely sure on that bit.)

The rest of the song is just the chorus so yeah, thats it.

| /  slide up
| \  slide down
| h  hammer-on
| p  pull-off
| ~  vibrato
| +  harmonic
| x  Mute note