Catherine Wheel - Crank Chords & Tabs

 

Crank Chords & Tabs

Catherine Wheel Chords & Tabs

Version: 1 Type: Tab 0 ratings
1 star 2 stars 3 stars 4 stars 5 stars
comments

Crank Tab

   
Artist: Catherine Wheel
Song: Crank
Album: Chrome
Tabbed by: Steve Griffin

Intro:
E--------------2-----------------
B---------------3----------------
G----0----0--2---2---------------
D---2----0--0-----0-------------- x2
A--2----2------------------------
E-0----3-------------------------
[ Tab from: http://www.guitartabs.cc/tabs/c/catherine_wheel/crank_tab.html ]
The verses and chorus are just these chords:

   Em   G    D
E-------3----2--------------------
B-------0----3--------------------
G--0----0----2--------------------
D--2----0----0--------------------
A--2----2-------------------------
E--0----3-------------------------

I'm not sure about the solo or the other parts.
Comments