Catherine Wheel - Collideoscope Chords & Tabs

 

Collideoscope Chords & Tabs

Catherine Wheel Chords & Tabs

Version: 1 Type: Tab 0 ratings
1 star 2 stars 3 stars 4 stars 5 stars
comments

Collideoscope Tab

   
#----------------------------------PLEASE NOTE---------------------------------#
#This file is the author's own work and represents their interpretation of the #
#song. You may only use this file for private study, scholarship, or research. #
#------------------------------------------------------------------------------##
from parrott@cachuma.callutheran.edu

Catherine Wheel - "Collideoscopic" (From the "I Want To Touch You" single)

A really great song that I had to pick out as soon as I heard it!

Intro & verse:

E --------------------------------------------------|
B --------------------------------------------------|
G --------------------------------------------------|
D -6-66-3-333--6-66-3-333---6-10-8-888--6-10-8-888--|
A -6-66-3-333--6-66-3-333---6-10-8-888--6-10-8-888--|
D -6-66-3-333--6-66-3-333---6-10-8-888--6-10-8-888--|

I don't know why it seems so different
I takes some time before I'm on my knees

I could pretend to understand it
I see no end to this confusion

Transition (2x):

E -------------------------|
B -------------------------|
G --10---------------------|
D --10--10-11-888-888-8-8--|
A ---8--10-11-888-888-8-8--|
D ------10-11-888-888-8-8--|

Chorus:
[ Tab from: http://www.guitartabs.cc/tabs/c/catherine_wheel/collideoscope_tab.html ]
E -------------------------------------------------------------------|
B -------------------------------------------------------------------|
G -------------------------------------------------------------------|
D -3-3-3-3-3-3-3-3--10-10-10-10-10-10-10-10--11-11-11-11-11-11-11-11-|
A -3-3-3-3-3-3-3-3--10-10-10-10-10-10-10-10--11-11-11-11-11-11-11-11-|
D -3-3-3-3-3-3-3-3--10-10-10-10-10-10-10-10--11-11-11-11-11-11-11-11-|

E -----------------|
B -----------------|
G -----------------|
D -8-8-8-8-8-8-8-8-|
A -8-8-8-8-8-8-8-8-|
D -8-8-8-8-8-8-8-8-|

Say what you say, do what you do, it's no problem
Say how you'll be, disguise it from me, it's no problem

(Transition 2x, mute strings second time)

Oh yeah!

Verse:

I don't know why it feels so special
It takes no time before I'm on my heels

(Transition 2x)

Oh yeah!

Chorus:

Say what you say, do what you do, it's no problem
Say how you'll be, disguise it from me, it's no problem
Say how you feel so you can reveal all of your problems
Say what you say, do what you do, it's no problem

(Play second half of verse 8x):

So much, so loud, so up, so down

(Transition 3x, chorus, transition 1x)

Ending (no distortion):

E ---------------|
B ---------------|
G ---------------|
D -3--10--11--8--|
A -3--10--11--8--|
D -3--10--11--8--|

Say what you say, do what you do, it's no problem
Comments