Catch Of The Day - Ode To The Bendy Straw Chords & Tabs

 

Ode To The Bendy Straw Chords & Tabs

Catch Of The Day Chords & Tabs

Version: 1 Type: Bass Tab 0 ratings
1 star 2 stars 3 stars 4 stars 5 stars
comments

Ode To The Bendy Straw Bass Tab

"Ode to the Bendy Straw" by Catch of the Day
Album: "Gone Fishin'"
By: Jimmy Jive
Tuning: Standard (EADG)
[ Tab from: http://www.guitartabs.cc/tabs/c/catch_of_the_day/ode_to_the_bendy_straw_btab.html ]
intro: (same as guitar, starting halfway through trumpet intro)
G---------5-----7-----3--------------
D-------5-----7-----3-------3--------
A-----3-----5-----1-------3----------
E-----------------------1------------

then the rest of the song goes like this throughout:

G---------------------------------------------------
D---------------------------------------------------
A----33333333-55555555-11111111---------------------
E-------------------------------11111111------------

listen to the song for timing, its an extremely easy song.
Comments