Catch 22 - Keasby Nights Chords & Tabs

 

Keasby Nights Chords & Tabs

Catch 22 Chords & Tabs

Version: 2 Type: Tab 0 ratings
1 star 2 stars 3 stars 4 stars 5 stars
comments

Keasby Nights Tab

Catch 22 are a great band and this is a rad song enjoy
any qusetion correction hate mail send to d_o_a_666@hotmail.com


intro
5--4--7--4--5--4--2--4-------|
5--5--7--5--5--5--3--5-------|
6--4--8--4--6--4--2--4-------|
-----------------------------|
-----------------------------|
-----------------------------|
[ Tab from: http://www.guitartabs.cc/tabs/c/catch_22/keasby_nights_tab_ver_2.html ]
verse
5--4--7--4----|
5--5--7--5----|
6--4--8--4----|
--------------|
--------------|
--------------|


chorus
5--2--5--4----|
5--3--5--5----|
6--2--6--4----|
--------------|
--------------|
--------------|

verse
5--4--7--4----|
5--5--7--5----|
6--4--8--4----|
--------------|
--------------|
--------------|

5--2--5--4----|
5--3--5--5----|
6--2--6--4----|
--------------|
--------------|
--------------|
Comments