Catatonia - Dream On Chords & Tabs

 

Dream On Chords & Tabs

Catatonia Chords & Tabs

Version: 1 Type: Tab 0 ratings
1 star 2 stars 3 stars 4 stars 5 stars
comments

Dream On Tab

   
Dream On
--------

Tabbed by: Jamie Hawker
Email: jamiehawker@hotmail.com

Tuning: Stadard E (E-A-D-G-B-e)

Capo On fret 1

Chords
        E A D G B E
B       X 2 4 4 4 2
Cmaj7   X 3 2 0 0 0
D       X 5 7 7 7 5
E       0 2 2 1 0 0
F       1 3 3 2 1 1
F#m     2 4 4 2 2 2

Key
~ = Hold
B = Bend
w = Whammy Bar
/ = Slide

e---3-----0---3-0~-3-----0---3-0----|
B-----1-----1--------1-----1--------|
G-------2--------------2------------|
D-3---------------------------------|
A-----------------------------------|
E-----------------------------------| Riff1

Intro - E Cmaj7 E Cmaj7

Common riff used throughout the song,
Use alternative notes around the scale to follow it along.

e-16-14-13~-----------------------13-|
B-----------13-14-16-14-13~-14-16----|
G------------------------------------|  
D------------------------------------|  
A------------------------------------|
E------------------------------------| X2 then continue
[ Tab from: http://www.guitartabs.cc/tabs/c/catatonia/dream_on_tab.html ]
e-16/18-16-14-13----------13-|
B----------------13-14-16----|
G----------------------------|
D----------------------------|
A----------------------------|
E----------------------------| X2 then repeat

E              Cmaj7
Dream On, Saul Younger
E              Cmaj7
Dream On, Saul Younger
  E   Cmaj7 F     D     B Riff1
I know this world won't change

E              Cmaj7
Dream On, Saul Younger
E              Cmaj7
Dream On, Saul Younger
  E   Cmaj7 F     D     B Riff1
I know this world won't change

E Cmaj7 E Cmaj7

           E        Cmaj7
Ewn dros y parcau...
         E          Cmaj7 
A dros y moroedd...

Solo over chords - F#m B F#m B

e--------------------------------------
B--------------------------------------
G-10b12-12b16-16b18-14b16-12b14-10w9-9- 
D--------------------------------------
A--------------------------------------
E--------------------------------------

E              Cmaj7
Dream On, Saul Younger
E              Cmaj7
Dream On, Saul Younger
  E     Cmaj7 F    D B Riff1
I caught you chasing chains
Comments