Catastrophic - Messiah Pacified Chords & Tabs

 

Messiah Pacified Chords & Tabs

Catastrophic Chords & Tabs

Version: 1 Type: Tab 0 ratings
1 star 2 stars 3 stars 4 stars 5 stars
comments

Messiah Pacified Tab

   
                      CATASTROPHIC - MESSISH PACIFIED
                            From the Album - THE CLEANSING
                             Copyright - METAL BLADE 2000
                               Version 1.0 - Feb,1 2003


Transcribed By: James Williams (Inverted)

For Questions, Comments, Newest Version, or Corrections contact
Inverted: at Inverted_one@hotmail.com

Check Out Death8699.com, With More Transcriptions On It:
http://www.death8699.com

.  - palm mute           /  - slide up to
\  - slide down to       ~  - vibrato
h  - hammer on           b  - Bend
p  - pull off            Suffixes for bend
t  - tap                 f  - full bend    h - half bend
ph - pinched harmonic    q  - quarter bend t - tap bend
*  - see comment         ^  - Hold bend    r release bend
x  - rest                ~  - vibrato bend
,  - slight palm mute    () - ghost note, sustained note
"  - tremolo note        <> - Trill

Tuning: D"G"C"F"A"D"


Riff 1
|--------------------------------|
|--------------------------------|
|--------------------------------|
|---------5----------------------|
|------5--3-------4-----5-----3--|
|--0-0-3--3---0-0-2---0-3---0-1--|
   . .        . .     .     .

Fill 1
|--------------------------------|
|--------------------------------|
|--------------------------------|
|--------------------------------|
|--2-2---------------------------|
|--0-0---------------------------|
   . .

Riff 2
|--------------------------------|
|--------------------------------|
|--------------------------------|
|----------3------------------4--|
|----------1------------------2--|
|--0-0-0-0-1------0-0-0-0-0-0-2--|
|  . . . .        . . . . . .    |
|                                |
|--------------------------------|
|--------------------------------|
|--------------------------------|
|----------3----------4-------5--|
|----------1----------2-------3--|
|--0-0-0-0-1------0-0-2-------3--|
   . . . .        . .
[ Tab from: http://www.guitartabs.cc/tabs/c/catastrophic/messiah_pacified_tab.html ]
Fill 2
|--------------------------------|
|--------------------------------|
|--------------------------------|
|---------5----------------------|
|--2-2----3-------4-----5-----3--|
|--0-0----3---0-0-2---0-3---0-1--|
   . .        . .     .     .

Riff 3
|--------------------------------|
|--------------------------------|
|--------------------------------|
|--------------------------------|
|--5----------3----6--------6\8--|
|--3----------1----4--------4\6--|


Riff 4-A
|-------------------------------|-------------------------------|
|-------------------------------|-------------------------------|
|-------------------------------|-------------------------------|
|------5\6-5--------------------|------5\6-5--------------------|
|------3\4-3------5----------4--|------3\4-3------5----------8--|
|--0-0--------0-0-3--0-0-0-0-2--|--0-0--------0-0-3--0-0-0-0-6--|
|  . .        . .    . . . .       . .        . .    . . . .    |
|                                                               |
|-------------------------------|-------------------------------|
|-------------------------------|-------------------------------|
|-------------------------------|-------------------------------|
|------5\6-5--------------------|------5\6-5-----------------6--|
|------3\4-3------5----------4--|------3\4-3------5----------4--|
|--0-0--------0-0-3--0-0-0-0-2--|--0-0--------0-0-3--0-0-0-0----|
   . .        . .    . . . .       . .        . .    . . . .

Riff 4-B
|-----------------------------|-----------------------------|
|-----------------------------|-----------------------------|
|-----------------------------|-----------------------------|
|------5\6-5------------------|------5\6-5------------------|
|------3\4-3------5--------4--|------3\4-3------5--------8--|
|--0-0--------0-0-3--0-0-0-2--|--0-0--------0-0-3--0-0-0-6--|
|  . .        . .    . . .       . .        . .    . . .    |
|                                                           |
|-----------------------------|-----------------------------|
|-----------------------------|-----------------------------|
|-----------------------------|-----------------------------|
|------5\6-5------------------|------5\6-5---------------6--|
|------3\4-3------5--------4--|------3\4-3------5--------4--|
|--0-0--------0-0-3--0-0-0-2--|--0-0--------0-0-3--0-0-0----|
   . .        . .    . . .       . .        . .    . . .

End
|----------|
|----------|
|----------|
|----------|
|--2-2-2x--|
|--0-0-0x--|
Comments