Cataclysm - Aura Chords & Tabs

 

Aura Chords & Tabs

Cataclysm Chords & Tabs

Version: 1 Type: Tab 0 ratings
1 star 2 stars 3 stars 4 stars 5 stars
comments

Aura Tab

   
------------------------------------------------------------
		     Aura - Cataclysm
------------------------------------------------------------

By:Cataclysm

h-hammer on        /-slide
p-pull off hammer  t-tapping (either finger or pick)
pm-palm mute       X-dumped string

e|---------------------------------------------------------|
B|---------------------------------------------------------|
G|-------------------------------0--0-------------0--------|
D|--0--0-------------0--0-------4--4-4-0-2-0-2-0-4---------|
A|-4--4-4-0-2-0-2-0-4--4-4-0-2-2--2---0---0-----2----------|
E|2--2---0---0-----2--2---0--------------------------------|

e|----0-------0-------0--------0--------0------------------|
B|---0-0-----0-0-----6-6------8-8------6-6----------------0|
G|--2---2---4---4---7---7----9---9----7---7----5----4----2-|
D|-2-----2-4-----4-7--------9--------7--------5----4----2--|
A|0-------2-------5------5-7------7-5------5-3--3-2--2-0---|
E|---------------------------------------------------------|

e|0-------0-------0--------0--------0------------------0---|
B|-0-----0-0-----6-6------8-8------6-6----------------0----|
G|--2---4---4---7---7----9---9----7---7----5----4----2-----|
D|---2-4-----4-7--------9--------7--------5----4----2------|
A|----2-------5------5-7------7-5------5-3--3-2--2-0-------|
E|---------------------------------------------------------|
[ Tab from: http://www.guitartabs.cc/tabs/c/cataclysm/aura_tab.html ]
(palm mute all 0's on the E-string)
e|---------------------------------------------------------|
B|---------------------------------------------------------|
G|---------------------------------------------------------|
D|---2---------------2-------2---2-------2-------2----2---|
A|-------2---0---2-------2---0-------2---0---2--------2---|
E|0-0-0-0-0-0-0-0-0-0-0-0-0-0-0-0-0-0-0-0-0-0-0-0-0-0-0-0-|
                                                      | 
                                                    un pm
e|---------------------------------------------------------|
B|---------------------------------------------------------|
G|---------------------------------------------------------|
D|--2----2---------------2-------2---2-------2-----2----2--|
A|--2--------2---0---2-------2---0-------2---0-2--------2--|
E|0-0-0-0-0-0-0-0-0-0-0-0-0-0-0-0-0-0-0-0-0-0-0-0-0-0-0-0-0|
    |                                                   |
  un pm                                               un pm
e|---------------------------------------------------------|
B|---------------------------------------------------------|
G|----4-----------4----------------------------------------|
D|--2-4-----5-----4-----2-----5-7-4---------4-----4-4------|
A|--2-2-X-X-5-X-X-2-X-X-2-X-X-5-7-4-X-X-X-X-4-X-X-4-4------|
E|0-0---X-X-3-X-X---X-X-0-X-X-3-5-2-X-X-X-X-2-X-X-2-2------|
      |     |     |     |     |   |
     10x   10x   10x   10x    8x  8x

that's all for now
i'll finish later
============================================================
Comments