Cat Stevens - The Wind Chords & Tabs

 

The Wind Chords & Tabs

Cat Stevens Chords & Tabs

Version: 2 Type: Tab 0 ratings
1 star 2 stars 3 stars 4 stars 5 stars
comments

The Wind Tab

Cat Stevens- The Wind

e|--------5-----------5----|
B|--3-----------3----------|
G|-----2-----2-----2-----2-|    (intro part at the beginning)
D|--0-----------0----------|
A|-------------------------|
E|-------------------------|


e|--------2-----3-2-1-0----0--------0-------------|
B|--3-----3--3----------3-------3------3-----2--3-|
G|-----2------------------------------------------|
D|--0-----------0-------------------------2-------|
A|----------------------------2--------0----------|
E|-------------------------3----------------------|

or sometimes it can go 
[ Tab from: http://www.guitartabs.cc/tabs/c/cat_stevens/the_wind_tab_ver_2.html ]
e|-----------2--3-2-1-0
B|--3-----3------------ (and so on)
G|-----2---------------
D|--0-----------0------
A|---------------------
E|---------------------

Chorus:
(figure out pattern)
e|-----0-----0--2--0-----0--0--0-----0-----0--2--0--2--0-----0--0--|
B|--0--2--0--2--3--0--0--0--3--2--0--2--0--2--3--3--3--0--0--0--2--|
G|--0--2--0--2--2--0--0--0--2--2--0--2--0--2--2--2--2--0--0--0--2--|
D|--0--2--0--2--0--2--0--2--2--2--0--2--0--2--0--0--0--2--0--2--2--|
A|--2--0--2--0-----2--2--2--0--0--2--0--2--0-----------2--2--2--0--|
E|--3-----3--------0--3--0--------3-----3--------------0--3--0-----|
Comments