Cat Stevens - The First Cut Is The Deepest Chords & Tabs

 

The First Cut Is The Deepest Chords & Tabs

Cat Stevens Chords & Tabs

Version: 1 Type: Tab 0 ratings
1 star 2 stars 3 stars 4 stars 5 stars
comments

The First Cut Is The Deepest Tab

   
##################################################################################
# This file is the author's own work and represents their interpretation of the  #
# song. You may only use this file for private study, scholarship, or research.  #
##################################################################################

Cat Stevens -- The First Cut Is The Deepest
[ Tab from: http://www.guitartabs.cc/tabs/c/cat_stevens/the_first_cut_is_the_deepest_tab.html ]
Verse 1
(3x)
(appeggios for verses)
(1)
        G             D                   C              D
E |------------7--------------5-------|-----------3---------------5-------|
B |--------8------8-------7-------7---|-------5------5-------7--------7---|
G |-----7-------------7---------------|---5--------------7----------------|
D |-----------------------------------|-----------------------------------|
A |-----------------------------------|-----------------------------------|
E |-----------------------------------|-----------------------------------|
(2)
     G                  C               D               C
E |----------7-----------------3-----|----------5----------------3-------|
B |------8-------8----------5------5-|------7------7--------5--------5---|
G |--7------------------5------------|--7---------------5----------------|
D |----------------------------------|-----------------------------------|
A |----------------------------------|-----------------------------------|
E |----------------------------------|-----------------------------------|
(3)
     G             C                    D            Dsus4
E |---------7----------------3-------|--2------2--------3-------3---------|
B |-----8-------8--------5-------5---|--3------3--------3-------3---------|
G |--7-------------5-----------------|--2------2--------2-------2---------|
D |----------------------------------|--0------0--------0-------0---------|
A |----------------------------------|------------------------------------|
E |----------------------------------|------------------------------------|
(4)
     D      Dsus4  D  Dsus2    D
E |--2--2--2-3-----2----0------2-----|
B |--3--3--3-3-----3----3------3-----|
G |--2--2--2-2-----2----2------2-----|
D |--0--0--0-0-----0----0------0-----|
A |----------------------------------|
E |----------------------------------|


Break
     G               D                  C             Dsus4 D  Dsus2 D   G
E |----------7---------------5-------|----------3----------------5-----|
B |------8-------8-------7-------7---|------5------5--------7--------7-|
G |--7---------------7---------------|--5---------------7--------------|
D |----------------------------------|---------------------------------|
A |----------------------------------|---------------------------------|
E |----------------------------------|---------------------------------|


Intro, Verse 1, & break                               
         Picked chords:    G         D        C
                         xxx787    xxx775   xxx553  
                   
 
Chorus & Verse 2                               
Strummed chords:          G         D         C      Dsus4      Dsus2
                       320033    xx0232    x32010    xx0233     xx0230         







Comments