Cat Stevens - Sad Lisa Chords & Tabs

 

Sad Lisa Chords & Tabs

Cat Stevens Chords & Tabs

Version: 1 Type: Tab 0 ratings
1 star 2 stars 3 stars 4 stars 5 stars
comments

Sad Lisa Tab

   
Sad Lisa
Cat Stevens - Amazingly deep song, as is all Cat Stevens :D
Standard tuning


     Am                                                  
E||--------------------------|--------------------------|
B||-----------1--------------|-----------1--------------|
G||--------2-----2p-0-----2--|--------2-----2p-0-----2--|
D||-----2--------------2-----|-----2--------------2-----|
A||--0-----------------------|--0-----------------------|
E||--------------------------|--------------------------|


                                                      
--------------------------|--------------------------|
-----------1--------------|-----------1--------------|
--------2-----2p-0-----2--|--------2-----2p-0-----2--|
-----2--------------2-----|-----2--------------2-----|
--0-----------------------|--0-----------------------|
--------------------------|--------------------------|


                                         G            
|-------------------------|-------------------------|
|--------0--1-----0-------|-----0--1--0-----1p-0----|
|*--2---------------------|--2----------------------|
|*-------2-----------2----|--------2--0-----2p-0----|
|---0----------0----------|--0----------------------|
|-------------------------|--------------3-----3----|



  F                       
--------------------------|
-----------1-----------1--|
--2-----2-----2-----2-----|
-----3-----------3--------|
--------------------------|
--1-----------------------|



  G                Am                   C                           
-------------------------|-----------0-----------0--|--------------|
--0-------------0--1--3--|--------3-----------1-----|--------1h-3--|
-------0--2--------------|-----0-----------0--------|-----0--------|
-------------------2-----|--------0-----------2-----|--------2-----|
-------------0-----------|--------------3-----------|--3-----------|
--3----------------------|--3-----------------------|--------------|


             G             Am         D              D            
--0-------------0--3----|-------------------------|--2-----------|
----------3-------------|--1-------3-----------3--|-----3-----3--|
-------------------0----|----------2--------2-----|--------2-----|
-------2----------------|-------2--------0--------|--------------|
--3---------------------|--0----------------------|--0-----------|
-------------3----------|-------------2-----------|--------------|


  Am       D               G        F                              
------------------------|--------------------------|--------------|
--1--0--1--3-------1----|--0-----------------------|--1--------1--|
-----------2-------2----|--0--2--0--2-----------2--|-----2--------|
--------2----------0----|--------0--3--------3-----|--------3-----|
--0---------------------|-----------------3--------|--------------|
--------------2---------|--3-----------1-----------|--1-----------|

[ Tab from: http://www.guitartabs.cc/tabs/c/cat_stevens/sad_lisa_tab.html ]
  G                 Am       G           C                           
--------------------------|-----------0-----------0--|--------------|
--0--------------0--1--3--|--------3-----------1-----|--------1h-3--|
-----2--0--2--------------|-----0-----------0--------|-----0--------|
--------------------2-----|--------0-----------2-----|--------2-----|
--------------0-----------|--------------3-----------|--3-----------|
--3-----------------------|--3-----------------------|--------------|


             G             Am      D                 D            
--0-------------0--3----|-------------------------|--2-----------|
----------3-------------|--1-------3-----------3--|-----3-----3--|
------------------------|----------2--------2-----|--------2-----|
-------2-----------0----|-------2--------0--------|--0-----------|
--3---------------------|--0----------------------|--------------|
-------------3----------|-------------2-----------|--------------|


                             Am       D                            
--2--------2--5p-3--2-----|------------------------|--------------|
--------3--------------3--|--1--0--1--3-------1----|--0-----------|
-----2--------------------|-----------2-------2----|-----2--1--2--|
--0-----------------------|--------2----------0----|--------------|
--------------------------|--0---------------------|--------------|
--------------------------|--------------2---------|--0-----------|


                                                      
-----------0--------------|-----------0--------------|
--------1-----3-----1p-0--|--------1-----3-----1p-0--|
-----2-----------2--------|-----2-----------2--------|
--------------------------|--------------------------|
--0-----------------------|--0-----------------------|
--------------------------|--------------------------|


                                                        
-----------0--------------|-----------0---------------||
--------1-----3-----1p-0--|--------1-----3-----1p-0---||
-----2-----------2--------|-----2-----------2--------*||
--------------------------|--------------------------*||
--0-----------------------|--0------------------------||
--------------------------|---------------------------||


                                                      
-----------0--------------|-----------0--------------|
--------1-----3p-1-----1--|--------1-----3p-1-----1--|
-----2--------------2-----|-----2--------------2-----|
--------------------------|--------------------------|
--0-----------------------|--0-----------------------|
--------------------------|--------------------------|


                                                
-----------0--------------|--5----------------||
--------1-----3p-1-----1--|--5----------------||
-----2--------------2-----|--5----------------||
--------------------------|--7----------------||
--0-----------------------|--7----------------||
--------------------------|--5----------------||
Comments