Cat Stevens - If I Laugh Chords & Tabs

 

If I Laugh Chords & Tabs

Cat Stevens Chords & Tabs

Version: 1 Type: Tab 0 ratings
1 star 2 stars 3 stars 4 stars 5 stars
comments

If I Laugh Tab

   
#----------------------------------PLEASE NOTE---------------------------------#
#This file is the author's own work and represents their interpretation of the #
#song. You may only use this file for private study, scholarship, or research. #
#------------------------------------------------------------------------------#
Date: Tue, 5 Sep 1995 21:01:10 -1000
From: Dave
Submitted by: Harlan L Thompson 

IF I LAUGH- Cat Stevens

TUNING: D A D F# A D

INTRO:
     h  s
4-5-|7-------|------54|575-----|--------|-7--97---|5--75---|--50--40|202-----|
----|0-------|--------|555-----|--------|-7---7---|5---5---|--5---0-|0-0-----|
----|0-------|--------|555-----|--------|-7---7---|5---5---|-5---3--|1-1-----|
----|0-------|--------|555-----|--------|-7---7---|5---5---|5---4---|2-2-----|
----|0-------|--------|--------|--------|---------|--------|--------|--------|
----|0-------|--------|--------|--------|---------|--------|--------|----0---|


INTRO AGAIN
[ Tab from: http://www.guitartabs.cc/tabs/c/cat_stevens/if_i_laugh_tab.html ]
INTERLUDE:
|--------|--------|---0---0|---0---0|---0---0|--------|----0---0|---0---0|
|---0---0|---0---0|--2---2-|--4---4-|--2---0-|---0---0|---2---2-|--4---4-|
|--0---0-|--0---0-|-1---1--|-3---3--|-1---0--|--0---0-|--1---1--|-3---3--|
|-2---2--|-1---1--|2---2---|4---4---|2---0---|-2---1--|-2---2---|4---4---|
|3---3---|2---2---|--------|--------|--------|3---2---|---------|--------|
|--------|--------|--------|--------|--------|--------|---------|--------|
                    da da da da...
|---0---0|---0---0|----0---0|---0---0|---0---0|---7---5|--50--40|202-----|
|--2---2-|--4---4-|---2---2-|--4---4-|--2---0-|--7---5-|--5---0-|0-0-----|
|-1---1--|-3---3--|--1---1--|-3---3--|-1---0--|-7---5--|-5---3--|1-1-----|
|2---2---|4---4---|-2---2---|4---4---|2---0---|7---5---|5---4---|2-2-----|
|--------|--------|---------|--------|--------|--------|--------|--------|
|--------|--------|---------|--------|--------|--------|--------|----0---|


REPEAT INTERLUDE TO FINISH


CHORDS:
    D  A  G  F#  Bm  E  D(2) D(3) Em11
D  -0--7--5---4---0--2---7----4----2----
A  -0--7--5---4---2--2---0----0----0----
D  -0--7--5---4---0--2---0----3----1----
F# -0--7--5---4---0--2---0----4----2----
A  -0--7--5---4---2--2---0----0----0----
D  -0--7--5---4------2---0----0----0----
Comments