Cat Stevens - How Can I Tell You Chords & Tabs

 

How Can I Tell You Chords & Tabs

Cat Stevens Chords & Tabs

Version: 3 Type: Tab 0 ratings
1 star 2 stars 3 stars 4 stars 5 stars
comments

How Can I Tell You Tab

   
This is a fast played guitar plucking tune. With the right timing it
is a realy good song.

CAPO 1ST FRET
[ Tab from: http://www.guitartabs.cc/tabs/c/cat_stevens/how_can_i_tell_you_tab_ver_3.html ]
     Em        D                          Em                A
  e------0-----5--0h2-----2h3p2--2--0--/---0--0-------0-----0--0--------0---|
  b-----0-----2---------3--------------/-----------0---------------2--------|
  g----0-----2--------2----------------/-------------0----------------2-----|
  d---2-----2-----0--------------------/---------2---------------2----------|
  a--2---------------------------------/---2----------------0---------------|
  E------------------------------------/------------------------------------|

      D                       G
  e---0h2---2h3p2-------------3------------------|
  b-------3----------3---------------------------|
  g---------------------2----------0-------------|    Then repeat the Em,A,D,G plucking sequence
  d---0------------0-----------------------------|
  a------------------------------2---------------|
  E---------------------------3--------3--2--0---|
Comments