Cat Stevens - How Can I Tell You Chords & Tabs

 

How Can I Tell You Chords & Tabs

Cat Stevens Chords & Tabs

Version: 1 Type: Tab 0 ratings
1 star 2 stars 3 stars 4 stars 5 stars
comments

How Can I Tell You Tab

   
#----------------------------------PLEASE NOTE---------------------------------#
#This file is the author's own work and represents their interpretation of the #
#song. You may only use this file for private study, scholarship, or research. #
#------------------------------------------------------------------------------#

How Can I Tell You by Cat Stevens
From Teaser and the Fire Cat


Intro:

 Em*              A*               D                G
|0---------------|5---------------|0h2-------2h3---|3!--------------|
|0---------------|5-----------3-5-|----3-----------|----------------|
|0---------------|2---------------|----2-----2h4---|4!--------------| 
|2---------------|2-----------4-5-|0---------------|----------------|
|2---------------|0---------------|----------------|----------------|
|0---------------|----------------|----------------|----------------|
 1 A 2 A 3 A 4 A  1 A 2 A 3 A 4 A  1 A 2 A 3 A 4 A 
* The first two chords are arpegiated.
! The two notes are held from the previous bar

 Em               A                D                G       G/F#
|2-----0---------|--------------0-|----------2h3---|3---------3-----|
|0-----0-----3---|2-----------3---|2h3---3---------|0---------0-----|
|2-----0-----4---|2-------2-------|----2-----2h4---|----------------|
|------------4---|2-----2---------|0-------0-------|----0-------0---|
|----------------|0---------0-----|----------------|----------------|
|0-------0-------|----------------|----------------|3-------2-------|
 1 A 2 A 3 A 4 A  1 A 2 A 3 A 4 A  1 A 2 A 3 A 4 A  1 A 2 A 3 A 4 A   


Verse:


 Em               A                D                G       G/F#     
||-0-----0---------|0-----0---------|----------2h3---|3-----3---------|
||*--0-------------|--2-------2-----|2h3---3---------|--0-------0-----|
||-----0-----0-----|----2-------2---|----2-----2h4---|----0-------0---|
||-------------0---|--------2-------|0-------0-------|----------------|
||*--------2-------|0---------------|----------------|----------------|
||-0---------------|----------------|----------------|3-------2-------|
   1 A 2 A 3 A 4 A  1 A 2 A 3 A 4 A  1 A 2 A 3 A 4 A  1 A 2 A 3 A 4 A  

 Oh,_________________         oh,_ oh,_

 Em               A                D   G/D D  Dsus2 G            
|0-----0---------|0-----0---------|2---3---2---0---|3---3-----------| 
|--0-------------|--2-------2-----|3---0---3---3---|--0-------0-----|
|----0-----0-----|----2-------2---|2---0---2---2---|----0-----------|
|------------0---|--------2-------|0---0---0---0---|----------------|
|--------2-------|0---------------|----------------|----------------|
|0---------------|----------------|----------------|3-------3---2---|
 1 A 2 A 3 A 4 A  1 A 2 A 3 A 4 A  1 A 2 A 3 A 4 A  1 A 2 A 3 A 4 A  

         How can I tell you that I love____________ you           I
[ Tab from: http://www.guitartabs.cc/tabs/c/cat_stevens/how_can_i_tell_you_tab.html ]
 Em               A                D   G/D D  Dsus2 G            
|0-----0---------|0-----0---------|2---3---2---0---|3---3-----------| 
|--0-------------|--2-------2-----|3---0---3---3---|--0-------0-----|
|----0-----0-----|----2-------2---|2---0---2---2---|----0-----------|
|------------0---|--------2-------|0---0---0---0---|----------------|
|--------2-------|0---------------|----------------|----------------|
|0---------------|----------------|----------------|3-------3---2---|
 1 A 2 A 3 A 4 A  1 A 2 A 3 A 4 A  1 A 2 A 3 A 4 A  1 A 2 A 3 A 4 A  

love_______________ you       But I can't think of right words to say


 Em               A                D   G/D D  Dsus2 G            
|0-----0---------|0-----0---------|2---3---2---0---|3---3-----------| 
|--0-------------|--2-------2-----|3---0---3---3---|--0-------0-----|
|----0-----0-----|----2-------2---|2---0---2---2---|----0-----------|
|------------0---|--------2-------|0---0---0---0---|----------------|
|--------2-------|0---------------|----------------|----------------|
|0---------------|----------------|----------------|3-------3---2---|
 1 A 2 A 3 A 4 A  1 A 2 A 3 A 4 A  1 A 2 A 3 A 4 A  1 A 2 A 3 A 4 A  

       I long to tell you that I'm always thinking of you         I'm

 Em               A                D   G/D D  Dsus2 G            
|0-----0---------|0-----0---------|2---3---2---0---|3---3-----------| 
|--0-------------|--2-------2-----|3---0---3---3---|--0-------0-----|
|----0-----0-----|----2-------2---|2---0---2---2---|----0-------0---|
|------------0---|--------2-------|0---0---0---0---|--------0-------|
|--------2-------|0---------------|----------------|----------------|
|0---------------|----------------|----------------|3---------------|
 1 A 2 A 3 A 4 A  1 A 2 A 3 A 4 A  1 A 2 A 3 A 4 A  1 A 2 A 3 A 4 A  

 always thinking of you     But my words just blow away

 D   G/D D  Dsus2 G            
|2---3---2---0---|3---3-----------| 
|3---0---3---3---|--0-------0-----|
|2---0---2---2---|----0-----------|
|0---0---0---0---|----------------|
|----------------|----------------|
|----------------|3-------3---2---|
 1 A 2 A 3 A 4 A  1 A 2 A 3 A 4 A  

       Just blow away           It                 __________________
                                                   | 1,2,3          |
 Em               A                D   G/D D  Dsus2 G            
|0-----0---------|0-----0---------|2---3---2---0---|3---3------------|| 
|--0-------------|--2-------2-----|3---0---3---3---|--0-------0-----*||
|----0-----0-----|----2-------2---|2---0---2---2---|----0------------||
|------------0---|--------2-------|0---0---0---0---|-----------------||
|--------2-------|0---------------|----------------|----------------*||
|0---------------|----------------|----------------|3-------3---2----||
 1 A 2 A 3 A 4 A  1 A 2 A 3 A 4 A  1 A 2 A 3 A 4 A  1 A 2 A 3 A 4 A  

 always ends up to one thing honey and I can't think of right words to say

___________________
| 4 
 G                Em               A                D
|3---3-----------|0-----0---------|0-----0---------|0h2-------------||
|--0-------0-----|--0-------------|--2-------2-----|----3-----------||
|----0-----------|----0-----0-----|----2-------2---|----2-----------||
|----------------|------------0---|--------2-------|0---------------||
|----------------|--------2-------|0---------------|----------------||
|3-------3---2---|0---------------|----------------|----------------||
 1 A 2 A 3 A 4 A  1 A 2 A 3 A 4 A  1 A 2 A 3 A 4 A  1 A 2 A 3 A 4 A  

 say              Oh__________________




Questions and comments welcome.

Kevin Moule
-----------
krmoule@undergrad.math.uwaterloo.ca
Comments