Cat Stevens - Father And Son Chords & Tabs

 

Father And Son Chords & Tabs

Cat Stevens Chords & Tabs

Version: 1 Type: Tab 0 ratings
1 star 2 stars 3 stars 4 stars 5 stars
comments

Father And Son Tab

   
##################################################################################
# This file is the author's own work and represents their interpretation of the  #
# song. You may only use this file for private study, scholarship, or research.  #
##################################################################################

{t:Father and Son}
{st:Cat Stevens}

Intro
                                           *
E |-----3-----3------3---3--------3--------5----------|
B |-----3-----3------3---5----------------------------|
G |-----4-----4------4---5----5-------5---------5-----|
D |-----5-----5------5---5----------------------------|
A |-----5-----5------5---3----------------------------|
E |-----3-----3------3---3----------------------------|
        G                C/G

                      ( Whilst holding down C chord, move little finger off
                        2nd string, & use to play 'A' note * on 1st string)

Verse 1

Verse 2

Verse 3



Instrumental verse 4 
     C/G            G         D               C           Am7
E |-------------|------------------------|--------------------------------|
B |-------------|------------------------|--------------------------------|
G |--4-5---5-7--|---7---4-5---7---4-5----|----7-----7--7---9--------------|
D |-------------|------------------------|---------------------5-----5--7-|
A |-------------|------------------------|--------------------------------|
E |-------------|------------------------|--------------------------------|
[ Tab from: http://www.guitartabs.cc/tabs/c/cat_stevens/father_and_son_tab.html ]
      G          Em            Am        D               G        D
E |------------------------|---------------------------|------------------|
B |------------------------|---------------------------|------------------|
G |---4----------4----5-4--|--4--------------4-5--5-7--|-7--4-5---7---4-5-|
D |--------5-7-------------|------7-7-5--7-7-----------|------------------|
A |------------------------|---------------------------|------------------|
E |------------------------|---------------------------|------------------|

       C        Am7           G         Em      D     G
E |------------------------|-------------------------|--------------------|
B |------------------------|-------------------------|--------------------|
G |---7---7-7---9----------|--4--------4---5-4--4----|--------4-5---5-7---|
D |---------------5----5-7-|-----5-7--------------7--|--5--5--------------|
A |------------------------|-------------------------|----5---------------|
E |------------------------|-------------------------|--------------------|

       D       C              G     C/G               G          C/G
E |-----------------------|-----------------------|-----------------------|
B |-----------------------|-----------------------|-----------------------|
G |----7-------5----5-4---|-----------------------|-----------------------|
D |-----------------------|---5-----5-5-5-5-2-0---|-----------------------|
A |-----------------------|---------------------2-|-----------------------|
E |-----------------------|-----------------------|---3-------------------| 

Verse 5



Chords:    G       C/G       Bm7         C        Am7       Em       D 
        355433    335553    224232     332010    x02013   022000   x00232

Comments