Cat Stevens - Father And Son Chords & Tabs

 

Father And Son Chords & Tabs

Cat Stevens Chords & Tabs

Version: 3 Type: Bass Tab 0 ratings
1 star 2 stars 3 stars 4 stars 5 stars
comments

Father And Son Bass Tab

Cat Stevens - Father and son
Tabbed by: Mr.Muppio


0:05-0:10
|-------|
|-------|
|-5-----|
|---3---|

0:46-1:15
|---------------------------| |------------------------------|
|-------------------------0-| |------------------------------|
|----5---3-------------0----| |-----5---3---------------5----|
|-3---------3---3---0-------| |-3-----------3---3---0------3-|

1:16
|----------|
|----------|
|------2-3-|
|-3--3-----|

1:19-1:46
|-------------------------------| |------------------------------|
|-----------------------------0-| |------------------------------|
|-----2---3---------------0-----| |-----5---5---------------5----|
|-3-----------3---3---0---------| |-3-----------3---3---0------3-|
[ Tab from: http://www.guitartabs.cc/tabs/c/cat_stevens/father_and_son_btab_ver_3.html ]
1:58-2:25
|-------------------------------| |------------------------------|
|-----------------------------0-| |------------------------------|
|-----5---3---------------0-----| |-----5---3---------------5----|
|-3-----------3---3---0---------| |-3-----------3---3---0------3-|

2:32
|----------|
|----------|
|------2-3-|
|-3--3-----|

2:35                           x3
|-------------------------------| |------------------------------|
|-----------------------------0-| |------------------------------|
|-----5---3---------------0-----| |-----5---3---------------5----|
|-3-----------3---3---0---------| |-3-----------3---3---0------3-|

3:31
|------------|
|------------|
|-5-5---3----|
|----------3-|
Comments