Casualties - Riot Chords & Tabs

 

Riot Chords & Tabs

Casualties Chords & Tabs

Version: 2 Type: Tab 0 ratings
1 star 2 stars 3 stars 4 stars 5 stars
comments

Riot Tab

any shit destinypunk@hotmail.com

RIOT!!!!!!

intro

6-------------
5--2----------
4--4----------
3--4--4-2/4---first part
2-------------
1-------------

verse

6-----------2-2-2-2---------5------------
5--2-2-2-2--4-4-4-4--5-5-5--7--5--4--2---
4--4-4-4-4--4-4-4-4--7-7-7--7--7--6--4---
3--4-4-4-4-----------7-7-7-----7--6--4---
2----------------------------------------
1----------------------------------------

chorus

6--------------------5-5-5-5--3-3-3--5-5-5-5---
5--5-5-5-5--7-7-7-7--7-7-7-7--5-5-5--7-7-7-7---
4--7-7-7-7--9-9-9-9--7-7-7-7--5-5-5--7-7-7-7---
3--7-7-7-7--9-9-9-9----------------------------
2----------------------------------------------
1----------------------------------------------

then repeat a lot the erse and the chorus an the INTERLUDE its like this.......

interlude
[ Tab from: http://www.guitartabs.cc/tabs/c/casualties/riot_tab_ver_2.html ]
6--slide this string at the end of this part-----------------------
5--2---2---2---2---5--4--2-2-2--5--4--2-2-2--5--4--2-2-2-----------
4--4---4---4---4---7--6--4-4-4--7--6--4-4-4--7--6--4-4-4-----------
3--4---4---4---4---7--6--4-4-4--7--6--4-4-4--7--6--4-4-4---4-2/4---
2------------------------------------------------------------------
1------------------------------------------------------------------

then repeat another verse and then.......

6----------------------------------------------------
5----------------------------------------------------
4------------------------7-7-7-7-7--5-7--------------
3--7-7-7-7-7--9-9-9-9-9------------------5-(7)-(7)---
2----------------------------------------------------
1----------------------------------------------------

then repeat the first part of the whole song and thats all.

see ya later bastards.
Comments