Casualties - Punk Rock Love Chords & Tabs

 

Punk Rock Love Chords & Tabs

Casualties Chords & Tabs

Version: 8 Type: Tab 0 ratings
1 star 2 stars 3 stars 4 stars 5 stars
comments

Punk Rock Love Tab

ok i noticed that none of the other songs are right so i'm going to show you

-tips when strumming the verses remember to count like 1 2 3 & 4 not just 1234 and
stumm up and down not just down stokes

enjoy! PLEASE RATE


intro
  e|--------------------------------------------------------| 
  B|--------------------------------------------------------| 
  G|--------------------------------------------------------| play 2x
  D|-----------------6-----6-----7--9--7-----7--9--11--9--7-| 
  A|----7-----7---4-----4-----5-----------7-----------------| 
  E|-5-----5------------------------------------------------| 

intro 2 
  e|-5--5--4----4---5---7--5---4--7--5--4--5~-4-5~-4-5~-7-5-4-5~| 
  B|---------5---------------5----------------------------------| 
  G|------------------------------------------------------------| 
  D|------------------------------------------------------------| 
  A|------------------------------------------------------------| 
  E|------------------------------------------------------------| 

v1
  e|-----------------------------------------------| 
  B|-----------------------------------------------| 
  G|-------------9-9-9-9----11-11-11-11----7-7-7-7-| 
  D|-7-7-7-7-----9-9-9-9----11-11-11-11----7-7-7-7-| 
  A|-7-7-7-7-----7-7-7-7----9--9--9--9-----5-5-5-5-| 
  E|-5-5-5-5---------------------------------------| 
AHH INTO SEEN  FULLOFLIES   MET YOU THERE  you seemed alright!


  e|-----------------------------------------------| 
  B|-----------------------------------------------| 
  G|-------------9-9-9-9----11-11-11-11----7-7-7-7-| 
  D|-7-7-7-7-----9-9-9-9----11-11-11-11----7-7-7-7-| 
  A|-7-7-7-7-----7-7-7-7----9--9--9--9-----5-5-5-5-| 
  E|-5-5-5-5---------------------------------------| 
GAVE YOU LOVE GAVE YOU HEART ALL YOU GAVE WAS BROKEN HEART!

  e|-----------------------------------------------| 
  B|-----------------------------------------------| 
  G|-------------9-9-9-9----11-11-11-11----7-7-7-7-| 
  D|-7-7-7-7-----9-9-9-9----11-11-11-11----7-7-7-7-| 
  A|-7-7-7-7-----7-7-7-7----9--9--9--9-----5-5-5-5-| 
  E|-5-5-5-5---------------------------------------| 
GAVE YOU LOVE GAVE YOU HEART ALL YOU GAVE WAS BROKEN HEART!
[ Tab from: http://www.guitartabs.cc/tabs/c/casualties/punk_rock_love_tab_ver_8.html ]
  e|-----------------------------------------------| 
  B|-----------------------------------------------| 
  G|-------------9-9-9-9----11-11-11-11----7-7-7-7-| 
  D|-7-7-7-7-----9-9-9-9----11-11-11-11----7-7-7-7-| 2X
  A|-7-7-7-7-----7-7-7-7----9--9--9--9-----5-5-5-5-| 
  E|-5-5-5-5---------------------------------------| 
BROKEN HEART I WANT IT BACK BROKEN HEART I GOT IT BACK!

  e|-----------------------------------------------| 
  B|-----------------------------------------------| 
  G|-------------9-9-9-9----11-11-11-11----7-7-7-7-| 
  D|-7-7-7-7-----9-9-9-9----11-11-11-11----7-7-7-7-| 
  A|-7-7-7-7-----7-7-7-7----9--9--9--9-----5-5-5-5-| 
  E|-5-5-5-5---------------------------------------| 
    (NO LYRICS)
V2
  e|-----------------------------------------------| 
  B|-----------------------------------------------| 
  G|-------------9-9-9-9----11-11-11-11----7-7-7-7-| 
  D|-7-7-7-7-----9-9-9-9----11-11-11-11----7-7-7-7-| 
  A|-7-7-7-7-----7-7-7-7----9--9--9--9-----5-5-5-5-| 
  E|-5-5-5-5---------------------------------------| 
OH MY LOVE OH MY DEAR WHAT I GAVE YOU WAS SO DEAR!

  e|-----------------------------------------------| 
  B|-----------------------------------------------| 
  G|-------------9-9-9-9----11-11-11-11----7-7-7-7-| 
  D|-7-7-7-7-----9-9-9-9----11-11-11-11----7-7-7-7-| 
  A|-7-7-7-7-----7-7-7-7----9--9--9--9-----5-5-5-5-| 
  E|-5-5-5-5---------------------------------------| 
OH MY LOVE OH MY DEAR WHAT I GAVE YOU WAS SO DEAR!


  e|-----------------------------------------------| 
  B|-----------------------------------------------| 
  G|-------------9-9-9-9----11-11-11-11----7-7-7-7-| 
  D|-7-7-7-7-----9-9-9-9----11-11-11-11----7-7-7-7-| 2X
  A|-7-7-7-7-----7-7-7-7----9--9--9--9-----5-5-5-5-| 
  E|-5-5-5-5---------------------------------------| 
LOVED YOU DEAR    OH SO DEAR

solo
  e|-5--5--4----4---5---7--5---4--7--5--4--5~-4-5~-4-5~-7-5-4-5~| 
  B|---------5---------------5----------------------------------| 
  G|------------------------------------------------------------| 
  D|------------------------------------------------------------| 
  A|------------------------------------------------------------| 
  E|------------------------------------------------------------| 


  e|-----------------------------------------------| 
  B|-----------------------------------------------| 
  G|-------------9-9-9-9----11-11-11-11----7-7-7-7-| 
  D|-7-7-7-7-----9-9-9-9----11-11-11-11----7-7-7-7-| 4x 
  A|-7-7-7-7-----7-7-7-7----9--9--9--9-----5-5-5-5-| 
  E|-5-5-5-5---------------------------------------| 

Scream "GAVE YOU LOVE GAVE YOU HEART ALL YOU GAVE WAS BROKEN HEART" TILL THE END OF
THE SONG AND WHEN YOU HIT THE LAST POWER CHOARD YOU SCREAM

"PUNK ROCK LOVE!!!!"

THERE YOU GO THATS IT REALLY EASY
Comments