Casualties - Punk Rock Love Chords & Tabs

 

Punk Rock Love Chords & Tabs

Casualties Chords & Tabs

Version: 4 Type: Tab 0 ratings
1 star 2 stars 3 stars 4 stars 5 stars
comments

Punk Rock Love Tab

   
-----------------------------------------------------------------------------
			     PUNK ROCK LOVE - The Casualties
-----------------------------------------------------------------------------
Tabbed by:crimsonghost138
Email:sk8r01@swbell.net

Tuning:STANDARD

| /  slide up
| \  slide down
| h  hammer-on
| p  pull-off
| ~  vibrato
| +  harmonic
| x  Mute note

INTRO:
e|--------------------------------------------------------------------------|
B|--------------------------------------------------------------------------|
G|--------------------------------------------------------------------------|
D|---2-2-6-6---7-9-7--9-9-11-9-7-5------------------------------------------|
A|--0-0-4-4-4-5------7-----------------------------------------------------|
E|--------------------------------------------------------------------------|

play twice.  listen to the song if you dont believe me...jerk.
e|--5-5-4-0-4-5-7-5-0-4-7-5-4----|---5-4h5-4h5-4h5-4h5-4-5-4-7-4-0----------|
B|-------------------------------|------------------------------------------|
G|-------------------------------|------------------------------------------|
D|-------------------------------|------------------------------------------|
A|-------------------------------|------------------------------------------|
E|-------------------------------|------------------------------------------|


[ Tab from: http://www.guitartabs.cc/tabs/c/casualties/punk_rock_love_tab_ver_4.html ]
e|--------------------------------------------------------------------------|
B|--------------------------------------------------------------------------|
G|--------------------------------------------------------------------------|
D|--------------------------------------------------------------------------|
A|-2-2-2-2-9-9-9-9-11-11-11-11-7-7-7----------------------------------------|
E|-0-0-0-0-7-7-7-7--9--9--9--9-5-5-5----------------------------------------|


e|----------------------------------|---------------------------------------|
B|----------------------------------|---------------------------------------|
G|----------------------------------|---------------------------------------|
D|----------------------------------|---------------------------------------|
A|-7-7-7-7-9-9-9-9-6-6-6-6-7-7-7-7--|--7-7-6-4------------------------------|
E|-5-5-5-5-7-7-7-7-4-4-4-4-5-5-5-5--|--5-5-4-2------------------------------|
                          play 2x then^

OUTRO...thats what its called right?
e|-0-5----------------------------------------------------------------------|
B|--------------------------------------------------------------------------|
G|--------------------------------------------------------------------------|
D|--------------------------------------------------------------------------|
A|--------------------------------------------------------------------------|
E|--------------------------------------------------------------------------|

THIS SONG IS PRETTY EASY TO PLAY...
=============================================================================
Comments