Casualties - On The Frontline Chords & Tabs

 

On The Frontline Chords & Tabs

Casualties Chords & Tabs

Version: 1 Type: Tab 0 ratings
1 star 2 stars 3 stars 4 stars 5 stars
comments

On The Frontline Tab

   
THE CASUALTIES-ON THE FRONTLINE
Tabbed By Ben H (PunkAsPhuck)

verse 
e|------------------------| 
B|------------------------| 
G|-9-9-9-9-9-9-7-12-9-9-9-| 
D|-9-9-9-9-9-9-7-12-9-9-9-| 
A|-7-7-7-7-7-7-5-10-7-7-7-| 
E|------------------------| 
[ Tab from: http://www.guitartabs.cc/tabs/c/casualties/on_the_frontline_tab.html ]
chorus 
e|---------------------| 
B|---------------------| 
G|-------------9-7-9-9-| 
D|-5-5-5-9-9-9-9-7-9-9-| 
A|-5-5-5-9-9-9-7-5-7-7-| 
E|-3-3-3-7-7-7---------| 

e|--------------------------------| 
B|--------------------------------| 
G|-5-5-5-5-4-4-7-7-5-5--4-5-7-5-4-| 
D|-5-5-5-5-4-4-7-7-5-5------------| 
A|-3-3-3-3-2-2-5-5-3-3------------| 
E|--------------------------------| 

bridge
e|---------------| 
B|---------------| 
G|-----------7-9-| 
D|-9-9-9-8-7-7-9-| 
A|-9-9-9-8-7-5-7-| 
E|-7-7-7-6-5-----|
Comments