Casualties - Mierda Mundial Chords & Tabs

 

Mierda Mundial Chords & Tabs

Casualties Chords & Tabs

Version: 1 Type: Tab 0 ratings
1 star 2 stars 3 stars 4 stars 5 stars
comments

Mierda Mundial Tab

Intro
 ----------------------------------------
 ----------------------------------------
 ----------------------------------------
 1/7-9-9--9-9-9--9-9-9-10-9-9-7---7-5-4--
 ----------------------------------------
 ----------------------------------------
 
 ----------------------------------------
 ----------------------------------------
 ----------------------------------------
 9-9--9-9-9--9-9-9-10-9-9-7-5-4-7-7-7-5-4
 ----------------------------------------
 ----------------------------------------

10=#  11=&  12=@
[ Tab from: http://www.guitartabs.cc/tabs/c/casualties/mierda_mundial_tab.html ]
Chorus
 -------------------------------------------
 ------------------------------------------- 
 #-#--#-#-#--#-#-#-@-#-7-7--7-7-7-6-6--6-6-6
 9-9--9-9-9--9-9-9-$-9-5-5--5-5-5-4-4--4-4-4
 -------------------------------------------
 -------------------------------------------

Verse 
 -------------------------------------------
 -------------------------------------------
 ##-#77-799-999--##-#77-766-666-------------
 99-955-577-777--99-955-544-444-------------
 -------------------------------------------
 -------------------------------------------
Comments