Casualties - Made In Nyc Chords & Tabs

 

Made In Nyc Chords & Tabs

Casualties Chords & Tabs

Version: 6 Type: Tab 0 ratings
1 star 2 stars 3 stars 4 stars 5 stars
comments

Made In Nyc Tab

   
The Casualites Made In N.Y.C. from Die Hards
by Collin (Subhuman8867@hotmail.com)

Key:
~ let ring
/ slide

Intro      2x
E-------4---4-------7-6-4-|
B-7---7---5---7---7-------|
G---6-----------6---------|
D-------------------------|
A-------------------------|
E-------------------------|

First Verse and Chorus
E-2222222-0000000-2222222-4-0-4-0-|
B-0000000-0000000-0000000-0-0-0-0-|
G---------------------------------|
D---------------------------------|   x8
A---------------------------------|
E---------------------------------|

Second Verse (whole thing x1)
E----------------------------------------------------------------------------|
B----------------------------------------------------------------------------|
G---------9999999---------8/9-99-8/9-99---------9999999----------------------|
D-9999999-9999999-9999999-8/9-99-8/9-99-9999999-9999999-11-11-11-11-11-9-8-9-|
A-9999999-7777777-9999999-6/7-77-6/7-77-9999999-7777777-9--9--9--9--9--7-6-9-|
E-7777777---------7777777---------------7777777----------------------------7-|

Second Chorus
E---------------------------------------------------------------------------|
B---------------------------------------------------------------------------|
G---------9999999---------8/9-99-8/9-99---------7777777---------------------|
D-9999999-9999999-9999999-8/9-99-8/9-99-7777777-7777777-7777-11-11-11-11-11-|
A-9999999-7777777-9999999-6/7-77-6/7-77-7777777-9999999-5555-9--9--9--9--9--|
E-7777777---------7777777---------------9999999-----------------------------|

Second Chorus cont.
E--------|
B--------|
G--------|
D-11-11--|
A-9--9---|
E--------|

Third Verse (whole thing x1)
E----------------------------------------------------------------------------|
B----------------------------------------------------------------------------|
G---------9999999---------8/9-99-8/9-99---------9999999----------------------|
D-9999999-9999999-9999999-8/9-99-8/9-99-9999999-9999999-11-11-11-11-11-9-8-9-|
A-9999999-7777777-9999999-6/7-77-6/7-77-9999999-7777777-9--9--9--9--9--7-6-9-|
E-7777777---------7777777---------------7777777----------------------------7-|
[ Tab from: http://www.guitartabs.cc/tabs/c/casualties/made_in_nyc_tab_ver_6.html ]
Third Chorus
E---------------------------------------------------------------------------|
B---------------------------------------------------------------------------|
G---------9999999---------8/9-99-8/9-99---------7777777---------------------|
D-9999999-9999999-9999999-8/9-99-8/9-99-7777777-7777777-7777-11-11-11-11-11-|
A-9999999-7777777-9999999-6/7-77-6/7-77-7777777-9999999-5555-9--9--9--9--9--|
E-7777777---------7777777---------------9999999-----------------------------|

Third Chorus cont. (whole think x1)
E-----------|
B-----------|
G-----------|
D-11-11--9~-|
A-9--9---9~-|
E--------7~-|

Fourth Verse
E---------------------------------------------------------|
B---------------------------------------------------------|
G-9---9-------------9---9---11-11-11-11-11-11-11-11-11-11-|
D-9-9-9-9-777777777-9-9-9-9-11-11-11-11-11-11-11-11-11-11-|
A-7-9-7-9-777777777-7-9-7-9-9--9--9--9--9--9--9--9--9--9--|
E---7---7-555555555---7---7-------------------------------|

Fourth Verse cont. (whole thing x1)
E------------------------------------------------------|
B------------------------------------------------------|
G-9---9-------------9---9---11-11-11-11-11-11-11-9-8---|
D-9-9-9-9-777777777-9-9-9-9-11-11-11-11-11-11-11-9-8-9-|
A-7-9-7-9-777777777-7-9-7-9-9--9--9--9--9--9--9--7-6-9-|
E---7---7-555555555---7---7--------------------------7-|

Fourth Chorus x2
E------------------------------------------------|
B------------------------------------------------|
G------9-11------11-9------9999------11-11-11-11-|
D-9999-9-11-9999-11-9-9999-9999-7777-11-11-11-11-|
A-9999-7-9--9999-9--7-9999-7777-7777-9--9--9--9--|
E-7777------7777------7777------5555-------------|

Fifth Verse
E---------------------------------------------------------|
B---------------------------------------------------------|
G-9---9-------------9---9---11-11-11-11-11-11-11-11-11-11-|
D-9-9-9-9-777777777-9-9-9-9-11-11-11-11-11-11-11-11-11-11-|
A-7-9-7-9-777777777-7-9-7-9-9--9--9--9--9--9--9--9--9--9--|
E---7---7-555555555---7---7-------------------------------|

Fifth Verse cont. (whole thing x1)
E------------------------------------------------------|
B------------------------------------------------------|
G-9---9-------------9---9---11-11-11-11-11-11-11-9-8---|
D-9-9-9-9-777777777-9-9-9-9-11-11-11-11-11-11-11-9-8-9-|
A-7-9-7-9-777777777-7-9-7-9-9--9--9--9--9--9--9--7-6-9-|
E---7---7-555555555---7---7--------------------------7-|

Fifth Chorus x2                                   End with this
E------------------------------------------------ ---|
B------------------------------------------------ ---|
G------9-11------11-9------9999------11-11-11-11- ---|
D-9999-9-11-9999-11-9-9999-9999-7777-11-11-11-11- 9~-|
A-9999-7-9--9999-9--7-9999-7777-7777-9--9--9--9-- 9~-|
E-7777------7777------7777------5555------------- 7~-|
Comments