Casualties - Get Off My Back Chords & Tabs

 

Get Off My Back Chords & Tabs

Casualties Chords & Tabs

Version: 2 Type: Tab 0 ratings
1 star 2 stars 3 stars 4 stars 5 stars
comments

Get Off My Back Tab

e|---------------------------------------------------------------------------| 
B|---------------------------------------------------------------------------| 
G|---------------------------------------------------------------------------| 
D|---------------------------------------------------------------------------| 
A|--7-7-7-7-7-7-7-/-8-/-7-7-7-7-7-7------------------------------------------| 
E|--5-5-5-5-5-5-5-/-6-/-5-5-5-5-5-5------------------------------------------| 
The “A” chord here, (5th fret) is played extremely fast….listen to the song for timing. 

e|---------------------------------------------------------------------------| 
B|---------------------------------------------------------------------------| 
G|---------------------------------------------------------------------------| 
D|---------10-10-10-10-------------------------------------------------------| 
A|-7-7-7-7--8--8--8--8---10 10-10-10----5-5-5-5------------------------------| 
E|-5-5-5-5----------------8--8--8--8----3-3-3-3------------------------------| 

Nice little Intro/Chorus. Listen for timing. 
[ Tab from: http://www.guitartabs.cc/tabs/c/casualties/get_off_my_back_tab_ver_2.html ]
e|---------------------------------------------------------------------------| 
B|---------------------------------------------------------------------------| 
G|---------------------------------------------------------------------------| 
D|----------5----------------------------------------------------------------| 
A|--7---5---3--7-------------------------------------------------------------| 
E|--5---3------5-------------------------------------------------------------| 
“Yer always bitchin’ all the time!” 

e|---------------------------------------------------------------------------| 
B|---------------------------------------------------------------------------| 
G|---------------------------------------------------------------------------| 
D|--------5--7---------------------------------------------------------------| 
A|--7--5--3--5---------------------------------------------------------------| 
E|--5--3---------------------------------------------------------------------| 
“Just Let me be myself!” 

e|---------------------------------------------------------------------------| 
B|---------------------------------------------------------------------------| 
G|---------------------------------------------------------------------------| 
D|-------5--7----------------------------------------------------------------| 
A|--7-5--3--5--5-7-----------------------------------------------------------| 
E|--5-3--------3-5-----------------------------------------------------------| 

Riff at the very very end
Comments