Casualties - Get Off My Back Chords & Tabs

 

Get Off My Back Chords & Tabs

Casualties Chords & Tabs

Version: 1 Type: Tab 0 ratings
1 star 2 stars 3 stars 4 stars 5 stars
comments

Get Off My Back Tab

   
Intro
repeat 4 times
 palm muted                   notpm                               
E---------------------------------- 
B----------------------------------
G----------------------------------
D----------------------------------
A777777777777777777777777777778-8-7
E555555555555555555555555555556-6-5

play 2 times
E-------------------------------
B-------------------------------
G-------------------------------
D-------10101010----------------
A7-7--77-8-8--88-101010105-5--55
E5-5--55---------8-8--88-3-3--33


verse
[ Tab from: http://www.guitartabs.cc/tabs/c/casualties/get_off_my_back_tab.html ]
E-------------------------------
B-------------------------------
G-------------------------------
D-------------------------------
A7-7-7-7-7-7-7-7-7-7-7-7-7-7-8-8
E5-5-5-5-5-5-5-5-5-5-5-5-5-5-6-6

chorus

E-----------------------
B-----------------------
G-----------------------
D----101010-------------
A7-77-8-88-1010105-5-8-8
E5-55-------8-88-3-3-6-6

breakdown

E--------------------------------------------------------------------
B--------------------------------------------------------------------
G--------------------------------------------------------------------
D-------5-22222222-------5-22222222-------5-22222222-------5-77777777
A55-5-4-3-0000000055-5-4-3-0000000055-5-4-3-0000000055-5-4-3-55555555
E33-3-2-----------33-3-2-----------33-3-2-----------33-3-2-----------
Comments