Casualties - Brainwashed Chords & Tabs

 

Brainwashed Chords & Tabs

Casualties Chords & Tabs

Version: 1 Type: Tab 0 ratings
1 star 2 stars 3 stars 4 stars 5 stars
comments

Brainwashed Tab

   
THE CASUALTIES-BRAINWASHED
Tabbed By Ben H (PunkAsPhuck)

intro 
e|-----| 
B|---7-| 
G|-----| 
D|-9---| 
A|-9---| 
E|-7---| 

verse 
e|---------------------| 
B|---------------------| 
G|-----11-7-11-9-7-7-7-| 
D|-9-9-11-7-11-9-7-7-7-| 
A|-9-9--9-5--9-7-5-5-5-| 
E|-7-7-----------------| 
[ Tab from: http://www.guitartabs.cc/tabs/c/casualties/brainwashed_tab.html ]
chorus 
e|-------------------------| 
B|-------------------------| 
G|-------------------------| 
D|-9-9-9-5-5-5-4-4-4-7-7-7-| 
A|-9-9-9-5-5-5-4-4-4-7-7-7-| 
E|-7-7-7-3-3-3-2-2-2-5-5-5-| 

bridge 
e|------------------------------| 
B|------------------------------| 
G|-----11-11-7-7--11-11-9-9-7-7-| 
D|-9-9-11-11-7-7--11-11-9-9-7-7-| 
A|-9-9--9--9-5-5---9--9-7-7-5-5-| 
E|-7-7--------------------------| 

end 
e|----------------| 
B|----------------| 
G|-7-5-7-9-7-9-11-| 
D|-7-5-7-9-7-9-11-| 
A|-5-3-5-7-5-7--9-| 
E|----------------|
Comments