Castle Project - Apologies Chords & Tabs

 

Apologies Chords & Tabs

Castle Project Chords & Tabs

Version: 1 Type: Tab 0 ratings
1 star 2 stars 3 stars 4 stars 5 stars
comments

Apologies Tab

   
------------------------------------------------------------------------------

		       Apologies - The Castle Project

------------------------------------------------------------------------------

Tabbed by: Conrad
Email: fenderliekomg@gmail.com
Notes: This is a great song by a Canadian band that I heard on CBC Radio 3's podcast.
I hope you enjoy the song.  It is quite simple.  I think the guitarist only plays the
bottom four strings of the chords below.

Tuning: Standard (EADGBe)
[ Tab from: http://www.guitartabs.cc/tabs/c/castle_project/apologies_tab.html ]
   Cm  Gm  A#  F
e|---------------|
B|-4-------------|
G|-5---3---7---2-|
D|-5---5---8---3-|
A|-3---5---8---3-|
E|-----3---6---1-|

So basically, the song goes like this (you have to figure out the rhythm for yourself):

e|---------------------------------------------|
B|-444444444-----------------------------------|
G|-555555555-333333333-----777777777-222222222-|
D|-555555555-555555555-----888888888-333333333-|
A|-333333333-555555555-----888888888-333333333-|
E|-----------333333333-3-5-666666666-111111111-|

Cm                     Gm
I wake up cold, in the night
    A#                         F
And try to warm myself up with you

Etc., etc.

===============================================================================
Comments