Casting Pearls - Alright Chords & Tabs

 

Alright Chords & Tabs

Casting Pearls Chords & Tabs

Version: 1 Type: Tab 0 ratings
1 star 2 stars 3 stars 4 stars 5 stars
comments

Alright Tab

   
Artist: Casting Pearls
Song: Alright
Album: Casting Pearls


Intro:
Doo doo doo doo doo doo doo doo… 
  C            F      A           G
|----------------------------------------------------------------|
|----------------------------------------------------------------|
|-5-5-5-5--------------------------------------------------------|
|-5-5-5-5------3-3-3--7-7-7-------5-5-5--------------------------|
|-3-3-3-3-xxxx-3-3-3--7-7-7-------5-5-5--------------------------|
|--------------1-1-1--5-5-5-xxxx--3-3-3--------------------------|

Verse: Bass
|----------------------------------------------------------------|
|----------------------------------------------------------------|
|----------------------------------------------------------------|
|----------------------------------------------------------------|
|---333----------------------------------------------------------|
|---------111--555---333-----------------------------------------|

Guitar kicks in:
|----------------------------------------------------------------|
|----------------------------------------------------------------|
|----------------------------------------------------------------|
|---555----------------------------------------------------------|
|---333-333--777--555--------------------------------------------|
|-------111--555--333--------------------------------------------|
You’re wastin’ your time…
[ Tab from: http://www.guitartabs.cc/tabs/c/casting_pearls/alright_tab.html ]
Chorus:
|----------------------------------------------------------------|
|----------------------------------------------------------------|
|----------------------------------------------------------------|
|---55555555-22222222--------------------------------------------|
|---33333333-22222222--7777-5555-3333----------------------------|
|------------00000000--5555-3333-1111----------------------------|

|----------------------------------------------------------------|
|----------------------------------------------------------------|
|----------------------------------------------------------------|
|---55555555-22222222--------------------------------------------|
|---33333333-22222222--7777-5555-5555-33333333-------------------|
|------------00000000--5555-3333-2222-11111111-------------------|
                                 Upside down…it’s gonna be… 





Bridge:
|----------------------------------------------------------------|
|----------------------------------------------------------------|
|----------------------------------------------------------------|
|---555-2---------------555-2------------------------------------|
|---333-2---5-5555555---333-2---5-5555555-55555555-33333333------|
|-------0---3-3333333-------0---3-3333333-22222222-11111111------|
     Why won’t you just let it go…

Then the drums alone:

This is the love that put the stars in the heavens
& this is the love that makes like worth…

|----------------------------------------------------------------|
|----------------------------------------------------------------|
|---------------------5555555555555555--(upstrokes---------------|
|------------------------------------------------------------&---|
|--5555555555555555---3333333333333333--downstrokes)-------------|
|--3333333333333333----------------------------------------------|
Livin’……….                  Everything is gonna…

Chorus
Intro

Pretty fun song to play..so have it..(fun)
later.
Cullin...

Comments