Cast Iron Hike - Let Me Down Chords & Tabs

 

Let Me Down Chords & Tabs

Cast Iron Hike Chords & Tabs

Version: 2 Type: Tab 0 ratings
1 star 2 stars 3 stars 4 stars 5 stars
comments

Let Me Down Tab

   
#----------------------------------PLEASE NOTE--------------------------------#
#This file is the author's own work and represents their interpretation of the#
#song. You may only use this file for private study, scholarship, or research.#
#-----------------------------------------------------------------------------#

Artist: Cast Iron Hike
Song: Let Me Down
Transcribed by: Lars Ekman (evil.elvis@swipnet.se)

Tune down the E-string to D. (Drop-D tuning.)

p = palm mute
/ = slide
b = bend
~ = the previous tone alot of times


Riff 1:
E ----------------------------
B ----------------------------
G ----------------------------
D ----------------------------
A --0-7-0--6--5--2--3--10--9--
D --0-7-0--6--5--2--3--10--9--
    p b p

[ Tab from: http://www.guitartabs.cc/tabs/c/cast_iron_hike/let_me_down_tab_ver_2.html ]
Riff 2:
E ----------------
B ----------------
G ----------------
D ----------------
A --0-~--3--6--2--
D --0-~--3--6--2--
    p


Riff 3:
E --------------------------------------------
B --------------------------------------------
G --------------------------------11--(9/11)--
D --12-------12-------9/11--------10--(8/10)--
A --11--0-~--11--0-~--7/9----0-~--9---(7/9-)-- 
D ------0-~------0-~---------0-~--------------

The parenthesis is only played on some instances.


Riff 4 (guitar 1):
E -----------------------------
B -----------------------------
G --7-~------------------------
D --6-~--12~-------------------
A --5-~--11~----------1-----0--
D --------------------1-----0--

Riff 4 (guitar 2):
E -----------------------------
B -----------------------------
G --7-~------------------------
D --6-~------------------------
A --5-~--5-0-5-0-5-0--1-----0--
D --------------------1-----0--


Some of the riffs come again totally or partly palm-muted.
Listen to the CD to figure things out.
Comments