Cast Iron - Disarm Chords & Tabs

 

Disarm Chords & Tabs

Cast Iron Chords & Tabs

Version: 2 Type: Tab 0 ratings
1 star 2 stars 3 stars 4 stars 5 stars
comments

Disarm Tab

   
Song: Disarm
Artist: Cast iron
Tabbed by: JimmyD

Intro:
E--------------------------------------------------|
B------1----------1----------1----------1----------|
G----2---2------2---2------2---2------2---2--------|
D--2-------2--2-------2--2-------2--2-------2------|
A--------------------------------------------------|
E--------------------------------------------------|


Verse:
     Amin                        F
E-----------------1----1-----1----1-----------------|
B--1----1----1----1----1-----1----1-----------------|
G--2----2----2----2----2-----2----2-----------------|x2
D--2----2----2----3----3-----3----3-----------------|
A-----------------3----3-----3----3-----------------|
E-----------------1----1-----1----1-----------------|


      Amin                       C
E----------------------------------------------------|
B--1----1----1----1----1-----1----1------------------|
G--2----2----2---------------------------------------|
D--2----2----2----2----2-----2----2------------------|
A-----------------3----3-----3----3------------------|
E----------------------------------------------------|
[ Tab from: http://www.guitartabs.cc/tabs/c/cast_iron/disarm_tab_ver_2.html ]
      E
E--------------------------------------------------|
B--------------------------------------------------|
G--1----1----1---1----1----1----1----1----1--------|
D--2----2----2---2----2----2----2----2----2--------|
A--2----2----2---2----2----2----2----2----2--------|
E--------------------------------------------------|


Chorus:
   Amin                       E
E--------------------------------------------------|
B--1----1----1-------------------------------------|
G--2----2----2---1----1----1----1----1----1--------|x3
D--2----2----2---2----2----2----2----2----2--------|
A----------------2----2----2----2----2----2--------|
E--------------------------------------------------|

E--1----1-----1----3----3-----3--------------------|
B--1----1-----1------------------------------------|
G--2----2-----2------------------------------------|
D--3----3-----3------------------------------------|
A--3----3-----3----2----2-----2--------------------|
E--1----1-----1----3----3-----3--------------------|


E---------------------3----3-----3-----------------|
B---1----1-----1-----------------------------------|
G--------------------------------------------------|
D---2----2-----2-----------------------------------|
A---3----3-----3------2----2-----2-----------------|
E---------------------3----3-----3-----------------|


Order:
Intro
Verse x6
Chorus x3
Verse x6
Chorus x3
Verse x6
Chorus x6(Fade)

P.S. You can check out the song at Kazaa.com
Comments