Cast - Walkaway Chords & Tabs

 

Walkaway Chords & Tabs

Cast Chords & Tabs

Version: 1 Type: Tab 0 ratings
1 star 2 stars 3 stars 4 stars 5 stars
comments

Walkaway Tab

   
"Walkaway" by Cast from the album All Change

Words and music by John Power

--------------------------------------------------------------------------------

Intro:
  C                 G          Am       Em              Dm
|------------------------------15~~-----17------------------|
|--------------------------------------------13--15~~---15b-|
|-----------------------------------------------------------|
|-------0--2-0----------------------------------------------|
|--0--0--------3--2-----------------------------------------|
|-------------------3--3-3----------------------------------|

  F             C   F  C              F  C
|--15-----------12-----------------12----------------20b---|
|-----13-----17s13----13---15---17s13---13--15-------------|
|----------------------------------------------------------|
|----------------------------------------------------------|
|----------------------------------------------------------|
|----------------------------------------------------------|

   C  C/B    Am     G     F       G    C   G
|---------------5-----------5--------------------|
|-----8---5--8----8-------8----5-----------------|
|--5----------------7--5----------5--7-7b--7r----|
|------------------------------------------------|
|------------------------------------------------|
|------------------------------------------------|

Verse 1:
   C      C/B   Am                 G
If you've heard all they've got to say,
    F                 G         C          G
You looked but turned away, walkaway - walkaway
   C      C/B  Am                G
If you've said all you've got to say,
         F               G         C          G        F
Now your words just slip away, walkaway - walkaway walkaway.

Chorus:
                 C              G              F
That's what they say, what they say, what they say.
              G
You gotta walkaway.
[ Tab from: http://www.guitartabs.cc/tabs/c/cast/walkaway_tab.html ]
Verse 2:
If you've played all the games to play,
You played them yesterday walkaway, walkaway.
If you've been where they wanna go,
Seen all they've got to show just walkaway, walkaway, walkaway.

Chorus:

Guitar Solo:
  C        C/B         Am           G                 F
|-------------------------------------------------------------|
|----------8----10-----15----17-----17h18p17--15--------------|
|--5--7p5----9-----12-----17----19---------------17------17---|
|----------------------------------------------------15-------|
|-------------------------------------------------------------|
|-------------------------------------------------------------|

   G      C         G
|--------------------------------------------15--12--15--17-15-|
|--15-----17h18p17--15---------17--15--13~~--------------------|
|-----17----------------17-17----------------------------------|
|--------------------------------------------------------------|
|--------------------------------------------------------------|
|--------------------------------------------------------------|


|-------------15--17-15------------15--17-15----------------------|
|--17--13-17------------17--13-17-------------17s-----------------|
|---------------------------------------------------5--7--7b---7r-|
|-----------------------------------------------------------------|
|-----------------------------------------------------------------|
|-----------------------------------------------------------------|

Bridge:
F            C               F               G
Now you must believe me, you never lose your dream.
           F    C              F              G
So now you must believe me, we never lose our dreams.

Verse 3:
If you've proved all there is to prove
Got nothing left to lose, just walkaway, walkaway.
If you've done all there is to do
Ain't nothing left for you walkaway, walkaway, walkaway.

Chorus:
Note: Don't play the very last part in the chorus:"Gotta walkaway". Go into the outro.

Outro:
    C         G              F
Walkaway, walkaway, walkaway___.
                 C              G              F
That's what they say, what they say, what they say,
          G         C
Gotta walkaway... today.
Comments