Cassidy Eva - Over The Rainbow Chords & Tabs

 

Over The Rainbow Chords & Tabs

Cassidy Eva Chords & Tabs

Version: 1 Type: Tab 3 ratings
1 star 2 stars 3 stars 4 stars 5 stars
comments

Over The Rainbow Tab

over the rainbow

tabbed by kt

e|--------------------|-----------------|--------------|--------------------|-----------------|
b|--------------1-----|-0------0--1-----|--------------|--------------------|-----------------|
g|--------------------|----0-2----------|---------2-0--|--------------------|-----------------|
d|--------------------|-----------------|--------------|-----3--2----0-2-3--|--0-----0-2------|
a|-------3------------|-----------------|---3----------|--0--------3--------|----2-3-----3----|
E|--------------------|-----------------|--------------|--------------------|-----------------|

[ Tab from: http://www.guitartabs.cc/tabs/c/cassidy_eva/over_the_rainbow_tab.html ]
e|--------------------|-----------------|--------------|--------------------|-----------------|
b|-0----0---0---0---0-|---0---0---0---0-|---2----2-----|--------------------|-----------------|
g|----2---2---2---2---|-3---3---3---3---|--------------|-0----0---0---0---0-|---2---2---2---2-|
d|--------------------|-----------------|--------------|----2---2---2---2---|-4---4---4---4---|
a|--------------------|-----------------|--------------|--------------------|-----------------|
E|--------------------|-----------------|--------------|--------------------|-----------------|


e|--------------------
b|--0--0--3-----------
g|-----------2--------    then back 2 the beginning
d|--------------------
a|--------------------
E|--------------------


im 100% possitive this is rite so enjoy!
Comments