Cassidy Dan - Flashfinger Chords & Tabs

 

Flashfinger Chords & Tabs

Cassidy Dan Chords & Tabs

Version: 1 Type: Tab 1 rating
1 star 2 stars 3 stars 4 stars 5 stars
comments

Flashfinger Tab

this is my song I fused it with some melodic tones,classic,some blues and an abit of latin.
I play it on acaustic with an all five finger picking style.
Yup I can play leads with my pinky.
Have fun its suposed to be played fast.
Key
(h) hammer on (p) pop off (/) slide (^) bend full step (x) rake[(] change of chord.
it is much easier if you know when to change finger positions while finger picking.
that is why i set the rifts apart.


e(-p----0-------0-------0-------0------)(----3--3--3---)(----0-----)
b(-i---4-4-----4-4-----4-4-----4-4-----)(---3-3--3--3--)(---1-1----)
g(-c--6---6-6-6---6-6-6---6-6-6---6-6-5)(--3---3--3--4-)(--2---2-2-)
d(-k-6-----6-6-----6-6-----6-6-----6-6-)(-5------------)(-2-----2--)
a(-e-----------------------------------)(--------------)(----------)
e(-d-----------------------------------)(--------------)(----------)
                                                                      
e(-------1---)(--------0---)(------------)(---------)(-------)(-----------)
b(----0---0--)(-----0---0--)(------------)(----1--0-)(-------)(-----------)
g(---2-2---2-)(----0-0---0-)(----2--4--2-)(---2-2---)(-----0-)(-4--5--5/7-)
d(--1---1----)(---2---2----)(---2----2---)(--2---2--)(----2--)(--2--2-----)
a(-2---------)(--2---------)(--0---0---0-)(-0-----0-)(---4---)(---0--0----)
e(-----------)(-0----------)(------------)(---------)(--0----)(-----------)

e(------)(---------)(-s-0--0-0--0-0-)(-0-0-0--0-0-)(-0--0-0--0-0-)(-0-)
b(------)(---------)(-t-0--0-0--0-0-)(-0-0-0--0-0-)(-0--0-0--0-0-)(-0-)
g(----0-)(-4-------)(-r-0--0-0--0-0-)(-0-0-0--0-0-)(-0--0-0--0-0-)(-0-)
d(---4--)(--2------)(-u-4--4-4--4-4-)(-5-5-5--5-5-)(-7--7-7--7-7-)(-9-)
a(--2---)(---0-3p2-)(-m-2--2-2--2-2-)(-3-3-3--3-3-)(-5--5-5--5-5-)(-7-)
e(-0----)(---------)(-d-0--0-0--0-0-)(-0-0-0--0-0-)(-0--0-0--0-0-)(-0-)

e(-p----------)(----------)(----------)(-----------)
b(-i----------)(----------)(----------)(-----------)
g(-c----0--0--)(---0------)(---0---0--)(---0-------)
d(-k---9-9--9-)(--7-7-7-7-)(--5-5-5-5-)(--4-4------)
a(-e--7---7--7)(-5---5-5--)(-3---3----)(-2---------)
e(-d-0--------)(----------)(----------)(-----3-2-0-)

e(-s----------------------------------(p)--------------(s)-0-0----0------------------)
b(-t----------------------------------(i)--------------(t)-0-0----0--let-------------)
g(-r-0-0-0---------------0-0-0--------(c)----4-----2p0-(r)-2-x----0--it--------------)
d(-u-2-2-2--0--0-0-0--0--2-2-2--0--0--(k)-0-----0------(u)-2-x----2--ring------------)
a(-m-2-2-2--0--2-2-2--0--2-2-2--0--2--(e)-2-----0------(m)-2-x----2------------------)
e(-d-0-0-0--1--3-3-3--1--0-0-0--1--3--(d)-3-----2------(d)-0-o----0------------------)
[ Tab from: http://www.guitartabs.cc/tabs/c/cassidy_dan/flashfinger_tab.html ]
e(-o-0--0-)(-p----0------0---0---0------------0--)(--------------------------)
b(-o-0--1-)(-i-1---1----1-1-4-4-4-4---1-1--1---1-)(-------3--1--0--3p1p0-----)
g(-1-x--2-)(-c--2---2--2---2---2---2-4-4-2--2---2)(---1----1--1--------------)
d(-2-x--2-)(-k---2----3----------------------2---)(--2------2--2-------------)
a(-2-x--0-)(-e-0---------------------------0-----)(-2------------------------)
e(-0-0--0-)(-d-----------------------------------)(--------------------------)

e(-5-3/1-(1)h3p1-0----0----(0)--(0)---1/4-5-)
b(-------------------1---0--3/1-(1)p0-------)
g(-5-3----2------0--0---1-------------------)
d(---------------------0--------------------)
a(------------------------------------------)
e(------------------------------------------)

the next bit is a lead I finger pick it but if you cant use a pick.
 if your used to a pick it might be easier. any ways get it done.
It should only take you aproximately 30-40 seckonds to do when I do it with
tempo it takes aproximitly 35 seckonds.

e(-----------------------------------------------5-6h8------8-10/12-
b(-0h2p4-5----------------------------------5-8p6-----8h9h10-------c
g(------2------------------------------5h6h7-----------------------o
d(----------------5h7-4/5--------5h7-8/7---------------------------n
a(-------------5-7------------5-7----------------------------------t
e(--------5h6h7----------5h6h7--------------------------------------

e(-12h13p12-(12)-14p13p12-15/17-(17)p15-13------------------
b(----------------------------------------15-13h15p13-8-^10c
g(---------------------------------------------------------o
d(---------------------------------------------------------n
a(---------------------------------------------------------t
e(----------------------------------------------------------

e(------1-4/5-8p7p5-8p7p5-10p9p7-10p9p7-10/12-(12)------------12-^14---12----------
b(-0h1h3------------------------------------------9p12-(12)/14---------12--let----c
g(-------------------------------------------------------------------------it-----o
d(-------------------------------------------------------------------------ring---n
a(-------------------------------------------------------------------------3 sec--t
e(---------------------------------------------------------------------------------

e(------10-----------------------------------------------
b(-13-12--9-(9)h10p9------------9h10---13-12/4-(4)-5----c
g(------------------10-9----10p9------------------------o
d(----------------------9h10----------------------------n
a(------------------------------------------------------t
e(-------------------------------------------------------

e(-13-10-12-8-------------------------)
b(-----------12-9------9-(9)/13-12-10-)
g(---------------10-9-7---------------)
d(------------------------------------)
a(------------------------------------)
e(------------------------------------)
thats it for the lead back to finger picking.

e(------------12---)(---7----)(----8------)(---7-----7-)
b(-------10-----10-)(----8-8-)(--10-10-10-)(--7-7---7--)
g(----9----9------9)(-9---9--)(-9-----9---)(-9---9-8---)
d(--10-10---10-----)(--------)(-----------)(-----------)
a(-0---------------)(--------)(-----------)(-----------)
e(-----------------)(--------)(-----------)(-----------)

e(----7----7-----7----------------s----12-)
b(---7-7-10-10-10-10-----10p8-----l-r--10-)
g(--8---8-----8-----8-8p7----8/9--o-a--9--)
d(-9------------------------------w-k--10-)
a(--------------------------------l-e--0--)
e(--------------------------------y-------)
Comments