Cash Johnny - Personal Jesus Chords & Tabs

 

Personal Jesus Chords & Tabs

Cash Johnny Chords & Tabs

Version: 1 Type: Tab 1 rating
1 star 2 stars 3 stars 4 stars 5 stars
comments

Personal Jesus Tab

I can't find this anywhere so for all those people like me here you go

The intro goes like this

E----------------------
B----------------------
G----------------------
D---------2---2-2---2--
A---------x---x-x---x--
E---0-3-0-0-3-0-0-3-0--

Then once the piano comes in he switches to this. That stays for the rest of the song

E----------------
B----------------
G----------------
D---------2------
A----------------
E---0-3-0--3-0---

"someone who knows...'
[ Tab from: http://www.guitartabs.cc/tabs/c/cash_johnny/personal_jesus_tab.html ]
E--------------------------
B----------------3-3---3-3-
G----------------0-0---0-0-
D---------2----------------
A---0-3-0---3--------------
E--------------3-----2-----

"Feeling unknown..."

E---3-3-3-3---2-2-2-2-
B---3-3-3-3---3-3-3-3-
G---0-0-0-0---2-2-2-2-
D---0-0-0-0---0-0-0-0-
A---2-2-2-2-----------
E---3-3-3-3-----------

"Reach out..."

E--------------------
B---2-2-2-2--1-1-1-1-
G---3-3-3-3--2-2-2-2-
D---4-4-4-4--3-3-3-3-
A---4-4-4-4--3-3-3-3-
E--------------------

I'm sure thats it so have fun
Comments